Cifra Club

Blaze Of Glory

Bon Jovi

Cifrado: Principal (guitarra y guitarra eléctrica)
tono: C
E|-------------------------------------------------------------|
B|-----------------13--13/15-----------------------------------|
G|-12/14-14--14-14-----------14--10/12-12--12-12-9-9/10-7------|
D|-------------------------------------------------------------|
A|-------------------------------------------------------------|
E|-------------------------------------------------------------|

E|-------------------------------------------------------------|
B|-------------------------------------------------------------|
G|-------------------------------------------------------------|
D|-----------------3~------------------------------------------|
A|--0h3h5-5--0h3h5---------------------------------------------|
E|-------------------------------------------------------------|

E|-------------------------------------------------------------|
B|-------------------------------------------------------------|
G|-------------------------------------------------------------|
D|-------------------------------------------------------------|
A|--0h3h5~-----------------------------------------------------|
E|-------------------------------------------------------------|

I wake up in the morning

And I raise my weary head

I've got an old coat for a pillow

And the earth was last night's bed

I don't know where I'm going

Only God knows where I've been

I'm a devil on the run
A six gun lover

A candle in the wind

E|-------------------------------------------------------------|
B|-----------------13--13/15-----------------------------------|
G|-12/14-14--14-14-----------14--10/12-12--12-12-9-9/10-7------|
D|-------------------------------------------------------------|
A|-------------------------------------------------------------|
E|-------------------------------------------------------------|

          Dm
When you've brought into this world
      C9
They say you're born in sin
         G
Well at least they gave me something
                   Dm
I didn't have to steal or have to win
           F
Well they tell me that I'm wanted
      C9
Yeah, I'm a wanted man
       G
I'm a colt in your stable
I'm what Cain was to Abel
        Dm
Mister catch me if you can

           G                   D
I'm going down in a blaze of glory
         G                 D
Take me now but know the truth
          G                   D
I'm going out in a blaze of glory
        C9
Lord I never drew first
But I drew first blood
     G
I'm no one's sone

Call me young gun

E|-------------------------------------------------------------|
B|-----------------13--13/15-----------------------------------|
G|-12/14-14--14-14-----------14--10/12-12--12-12-9-9/10-7~-----|
D|-------------------------------------------------------------|
A|-------------------------------------------------------------|
E|-------------------------------------------------------------|

    Dm
You ask about my conscience
      C9
And I offer you my soul
                  G
You ask if I'll grow to be a wise man
       Dm
Well I ask if I'll grow old
 F
You ask me if I've known love
                       C9
And what it's like to sing songs in the rain
            G
Well, I've seen love come

And I've seen it shot down
      Dm
I've seen it die in vain

          G                 D
Shot down in a blaze of glory
          G                 D
Take me now but know the truth
          G                   D
I'm going out in a blaze of glory
        C9
Lord I never drew first

But I drew first blood
     G
I'm no one's sone

Call me young gun

E|-------------------------------------------------------------|
B|-----------------13--13/15-----------------------------------|
G|-12/14-14--14-14-----------14--10/12-12--12-12-9-9/10-7------|
D|-------------------------------------------------------------| 2x
A|-------------------------------------------------------------|
E|-------------------------------------------------------------|


Each night I go to bed

I pray the Lord my soul to keep

No I ain't looking for forgiveness

But before I'm six foot deep

Lord, I got to ask a favor

And I hope you'll understand

'Cause I've lived life to the fullest

Let this boy die like a man

 Staring down a bullet

Let me make my final stand

          G                 D
Shot down in a blaze of glory
          G                 D
Take me now but know the truth
          G                   D
I'm going out in a blaze of glory
        C9
Lord I never drew first

But I drew first blood
     G
I'm no one's sone

Call me young gun

E|-------------------------------------------------------------|
B|-----------------13--13/15-----------------------------------|
G|-12/14-14--14-14-----------14--10/12-12--12-12-9-9/10---7~---|
D|-------------------------------------------------------------| 2x
A|-------------------------------------------------------------|
E|-------------------------------------------------------------|
00:00 / 00:00
Otros videos de esta canción
Repetir
Otros videos de esta canción
Composición de Jon Bon Jovi
Colaboración y revisión:
7.394 vistas
    • ½ Tono
    • A
    • Bb
    • B
    • C
    • Db
    • D
    • Eb
    • E
    • F
    • F#
    • G
    • Ab
  • Agregar a la lista

    0 comentarios

    Ver todos los comentarios

    ¿Lograste tocar?

    28 Tocaron 1 Aún no

    ¡Graba un video tocando Blaze Of Glory y envíanoslo!

    00:00 / 00:00
    OK