Cifra Club

Blood Money

Bon Jovi

Tablatura: Acustico (guitarra)
Já pensou em usar uma coleção de roupas do Cifra Club? Responda as perguntas abaixo e nos ajude nessa missão! →
tono: F# (con acordes en la forma de G) Afinación: Eb Ab Db Gb Bb Eb
E|---------------0-|-2---2---2--0----|-----------------|----0-----------|
B|-----2---2--3----|-----3---------3-|-----2---2--0----|----0---0-----0-|
G|-----2-----------|---2-2-2--2--2---|-----2---------2-|1----------2----|
D|---2---2--2--2---|-0------0--0--0-0|---2---2--2--2---|----------------|
A|-0------0--0--0-0|-----------------|-0------0--0--0-0|--2---2--2--2---|
E|-----------------|-----------------|-----------------|0------0--0--0-0|

E|---------------0-|-----2---20---0--|-----------------|-----0-----------|
B|-----2---2--3----|-----3------3----|-----2---2--0----|---------0-----0-|
G|-----2-----------|---2-2-2-------2-|-----2---------2-|-1----------2----|
D|---2---2--2--2---|-0------0--0-0--0|---2---2--2--2---|-----------------|
A|-0------0--0--0-0|-----------------|-0------0--0--0-0|---2---2--2--2---|
E|-----------------|-----------------|-----------------|-0------0--0--0-0|


Hey Patty Garrett,                       They tell me you want me,
that's what I used to call you.          but I hear they've got you.
E|---------------0-|-----2---2--0----|---------------0-|-----2---2--0----|
B|-----2---2--3----|-----3---------3-|-----2---2--3----|-----3---------3-|
G|-----2-----------|---2-2-2--2--2---|-----2-----------|---2-2-2--2--2---|
D|---2---2--2--2---|-0------0--0--0-0|---2---2--2--2---|-0------0--0--0-0|
A|-0------0--0--0-0|-----------------|-0------0--0--0-0|-----------------|
E|-----------------|-----------------|-----------------|-----------------|


And they made you a lawman               They paid you some money,
with a badge made of silver.            to sell them my blood.
E|---------------0-|-2---2---2--0----|-----------------|----0-----------|
B|-----2---2--3----|-----3---------3-|-----2---2--0----|----0---0-----0-|
G|-----2-----------|---2-2-2--2--2---|-----2---------2-|1----------2----|
D|---2---2--2--2---|-0------0--0--0-0|---2---2--2--2---|----------------|
A|-0------0--0--0-0|-----------------|-0------0--0--0-0|--2---2--2--2---|
E|-----------------|-----------------|-----------------|0------0--0--0-0|


I wonder what would have happened,       And I was the hero,
if you were the killer.                  would things be the same.
E|---------------0-|-----2---2--0----|---------------0-|-----2---2--0----|
B|-----2---2--3----|-----3---------3-|-----2---2--3----|-----3---------3-|
G|-----2-----------|---2-2-2--2--2---|-----2-----------|---2-2-2--2--2---|
D|---2---2--2--2---|-0------0--0--0-0|---2---2--2--2---|-0------0--0--0-0|
A|-0------0--0--0-0|-----------------|-0------0--0--0-0|-----------------|
E|-----------------|-----------------|-----------------|-----------------|


Or would I have traded your life for my own life?
Would I have paid your debts in your place?
E|---------------0-|-2---2---2--0----|-----------------|----0-----------|
B|-----2---2--3----|-----3---------3-|-----2---2--0----|----0---0-----0-|
G|-----2-----------|---2-2-2--2--2---|-----2---------2-|1----------2----|
D|---2---2--2--2---|-0------0--0--0-0|---2---2--2--2---|----------------|
A|-0------0--0--0-0|-----------------|-0------0--0--0-0|--2---2--2--2---|
E|-----------------|-----------------|-----------------|0------0--0--0-0|


Well this ain't about

E|---------------0-|-3---3---3---3---|
B|-----2---2--3----|-2---2---2---2---|
G|-----2-----------|-2---2---2---2---|
D|---2---2--2--2---|-----------------|
A|-0------0--0--0-0|-0-0-0-0-0-0-0-0-|
E|-----------------|-----------------|


me...                   Or the good and the bad times,           When the lines.... between
and this ain't about you.                we've both been through.
E|-----2---2--0----|-----------------|-----0-----------|---------------0-|
B|-----3---------3-|-----2---2--0----|-----0---0-----0-|-----2---2--3----|
G|---2-2-2--2--2---|-----2---------2-|-1----------2----|-----2-----------|
D|-0------0--0--0-0|---2---2--2--2---|-----------------|---2---2--2--2---|
A|-----------------|-0------0--0--0-0|---2---2--2--2---|-0------0--0--0-0|
E|-----------------|-----------------|-0------0--0--0-0|-----------------|

brothers,                     You do what you've got to,                   Blood
and justice have changed.              'cause you can't walk away.
E|-2---2---2--0----|-----------------|-----0-----------|---------------0-|
B|-----3---------3-|-----2---2--0----|-----0---0-----0-|-----2---2--3----|
G|---2-2-2--2--2---|-----2---------2-|-1----------2----|-----2-----------|
D|-0------0--0--0-0|---2---2--2--2---|-----------------|---2---2--2--2---|
A|-----------------|-0------0--0--0-0|---2---2--2--2---|-0------0--0--0-0|
E|-----------------|-----------------|-0------0--0--0-0|-----------------|


money,                     'Cause money for blood                          Blood
that's what I call it.                   ain't no fair exchange.
E|-----2---2--0----|-----------------|-----0-----------|---------------0-|
B|-----3---------3-|-----2---2--0----|-----0---0-----0-|-----2---2--3----|
G|---2-2-2--2--2---|-----2---------2-|-1----------2----|-----2-----------|
D|-0------0--0--0-0|---2---2--2--2---|-----------------|---2---2--2--2---|
A|-----------------|-0------0--0--0-0|---2---2--2--2---|-0------0--0--0-0|
E|-----------------|-----------------|-0------0--0--0-0|-----------------|


money,                      But your conscience is all,
bought and then sold you.                 you can take to your grave.....
E|-----2---2--0----|-----------------|-----0-----------|---------------0-|
B|-----3---------3-|-----2---2--0----|-----0---0-----0-|-----2---2--3----|
G|---2-2-2--2--2---|-----2---------2-|-1----------2----|-----2-----------|
D|-0------0--0--0-0|---2---2--2--2---|-----------------|---2---2--2--2---|
A|-----------------|-0------0--0--0-0|---2---2--2--2---|-0------0--0--0-0|
E|-----------------|-----------------|-0------0--0--0-0|-----------------|

E|-----2---2--0----|-----------------|-----2---2--0----|-----------------|
B|-----3---------3-|-----2---2--0----|-----3---------3-|-----2---2--0----|
G|---2-2-2--2--2---|-----2---------2-|---2-2-2--2--2---|-----2---------2-|
D|-0------0--0--0-0|---2---2--2--2---|-0------0--0--0-0|---2---2--2--2---|
A|-----------------|-0------0--0--0-0|-----------------|-0------0--0--0-0|
E|-----------------|-----------------|-----------------|-----------------|

E|-----0-----------|-----------------|
B|---------0-----0-|-----2-----------|
G|-1----------2----|-----2-----------|
D|-----------------|---2-------------|
A|---2---2--2--2---|-0---------------|
E|-0------0--0--0-0|-----------------|

Composição de Jon Bon Jovi
Colaboración y revision:
  • malvina
26 reproducciones
    • ½ Tono
    • A
    • Bb
    • B
    • C
    • Db
    • D
    • Eb
    • E
    • F
    • F#
    • G
    • Ab
  • Adicionar à lista

    0 comentarios

    Ver todos os comentários

    ¿Conseguiste tocar?

    0 Tocaram 0 Ainda não

    Grave um vídeo tocando Blood Money e nos envie!

    00:00 / 00:00
    outros vídeos desta música
    repetir qualidade Automático
    Outros vídeos desta música
    00:00 / 00:00
    Automático
    OK