Cifra Club

Burning For Love

Bon Jovi

Cifrado: Principal (guitarra y guitarra eléctrica)
Selo Cifra Club: esta cifra foi revisada para atender aos critérios oficiais da nossa Equipe de Qualidade.
tono: Dm
Intro
E|-----------------10-------10--------12--------13-------12-------10-------|
B|-------------------10-------11--------13--------15--15---13--13---10-----|
G|---------------------10-------12--------12--------14-------12-------10---|
D|--------5--------------12-------12--------14--------------------------12-|
A|-8-7-5----8-7------------------------------------------------------------|
E|-------------9-----------------------------------------------------------|

Verse
E|-------------------------------------------------------------------------|
B|-------------------------------------------------------------------------|
G|---------------7-7-7-7---------------------------------------------------|
D|--5--5---7--7--7-7-7-7--5--5--7------------------------------------------|
A|--5--5---7--7--5-5-5-5--5--5--7------------------------------------------|
E|--3--3---5--5-----------3--3--5------------------------------------------|

Chours
E|-------------------------------------------------------------------------|
B|-------------------------------------------------------------------------|
G|-------------------------------------------------------------------------|
D|--7-5-7---------5-3-5---5-3-5----0-3-2-0-3-2-0------7-5-7---5-3-5--------|
A|--5-3-5---------5-3-5---3-1-3-------3-3-3-3-3-3-----5-3-5---5-3-5--------|
E|-------------------------------------------------------------------------|

E|-------------------------------------------------------------------------|
B|-------------------------------------------------------------------------|
G|-----------------0-3-2-5-3-2-0-------------------------------------------|
D|--5-3-5---7---5----------------3-----------------------------------------|
A|--3-1-3---5---3----------------------------------------------------------|
E|-------------------------------------------------------------------------|

Intro
Vers
Chours
Pre Solo
E|-------------------------------------------------------------------------|
B|-------------------------------------------------------------------------|
G|-0-12-0-0-10-0-0-12-0-0-10-0-0----------x3-------------------------------|
D|-------------------------------------------------------------------------|
A|-------------------------------------------------------------------------|
E|-------------------------------------------------------------------------|
Solo (play verse on)
Bridge (had not time)
Chours
00:00 / 00:00
Otros videos de esta canción
Repetir
Otros videos de esta canción
38 exhibiciones
    • ½ Tono
    • Am
    • Bbm
    • Bm
    • Cm
    • C#m
    • Dm
    • Ebm
    • Em
    • Fm
    • F#m
    • Gm
    • G#m
  • Agregar a la lista

Afinación de cifrado

Afinador online

    00:00 / 00:00
    OK