Cifra Club

Have a Nice Day

Bon Jovi

Cifrado: Principal (guitarra y guitarra eléctrica)
tono: E
[Intro] C#m  E  A5(9)  E  B5(9)
        C#m  E  A5(9)  E  B5(9)
        C#m  E  A5(9)  E  B5(9)

[Primeira Parte]

  C#m                                     
Why you wanna tell me how to live my life?

( C#m  E  A5(9)  B5(9) )

  C#m                                        
Who are you to tell me if it's black or white?

( C#m  E  A5(9)  B5(9) )

[Primeira Ponte]

 C#m
Momma, can you hear me? Try to understand
   E
Is innocence the difference 'tween a boy and a man
    F#m
My daddy lived a lie

That's just the price that he paid
 A5(9)
Sacrificed his life, just slaving away

[Primeiro Refrão]

C#m            A5(9)            E
Oh, if there's one thing I hang onto
                B5(9)
That gets me thru the night
C#m            A5(9)           E
I ain't gonna do what I don't want to
           B5(9)
I'm gonna live my life
  C#m                    A5(9)
Shining like a diamond, rolling with the dice
  E
Standing on the ledge
               B5(9)
I'll show the wind how to fly
          F#m
When the world gets in my face
      A5(9)
I say
             C#m  E  A5(9)  E
Have a nice day
 B5(9)       C#m  E  A5(9)  E  B5(9)
Have a nice day!

[Segunda Parte]

 C#m                                          
Take a look around you, nothing's what it seems

( C#m  E  A5(9)  B5(9) )

       C#m                                      
We're living in a broken home of hopes and dreams

( C#m  E  A5(9)  B5(9) )

[Segunda Ponte]

 C#m
Let me be the first to shake a helping hand
E
Anybody brave enough to take a stand
       F#m
I've knocked on every door, on every dead end street
 A5(9)
Looking for forgiveness and what's left to believe

[Segundo Refrão]

C#m            A5(9)            E
Oh, if there's one thing I hang onto
                B5(9)
That gets me thru the night
C#m            A5(9)           E
I ain't gonna do what I don't want to
           B5(9)
I'm gonna live my life
  C#m                    A5(9)
Shining like a diamond, rolling with the dice
  E
Standing on the ledge
               B5(9)
I'll show the wind how to fly
          F#m
When the world gets in my face
      A5(9)
I say
             C#m  E  A5(9)  E
Have a nice day
 B5(9)       C#m  E  A5(9)  E  B5(9)
Have a nice day!

[Solo] C#m  A5(9)  E  B5(9) 
       C#m  A5(9)  E  B5(9)  
       F#m  A5(9)

E|------------------------------9--------------------|
B|-12b14~~--12b14r12-9-12b14~~----12-9---------------|
G|-------------------------------------11-11b13r11p9-|
D|---------------------------------------------------|
A|---------------------------------------------------|
E|---------------------------------------------------|

E|---------12------------------------0-0-------------|
B|------------12---------------------0---------------|
G|-11b13~~-------b13r11p9--11~~----------------------|
D|---------------------------------------------------|
A|---------------------------------------------------|
E|---------------------------------------------------|

E|---------------------------------------------------|
B|-------9-12b14-9-------9-12b14-9-------9-12b14-9---|
G|-11b13-----------11b13-----------11b13-------------|
D|---------------------------------------------------|
A|---------------------------------------------------|
E|---------------------------------------------------|

E|-----------------12b14---b14r12-12-11-11-----------|
B|-------9-12b14-9-------------------------12-12-----|
G|-11b13-----------------------------------------11~~|
D|---------------------------------------------------|
A|---------------------------------------------------|
E|---------------------------------------------------|

E|-0----0--0---0--0--0--0--0--0--0--0--0-------------|
B|-9h10-10-10--9--9--9--5--5--5--0--0--0--0--0--0--0-|
G|----------------------------------------2--2--1--1-|
D|---------------------------------------------------|
A|---------------------------------------------------|
E|---------------------------------------------------|

E|-0--0----------------------------------------------|
B|-0--0----------------------------------------------|
G|-2--2----------------------------------------------|
D|-2--2----------------------------------------------|
A|-0--0----------------------------------------------|
E|---------------------------------------------------|

( C#m  E  A5(9)  E  B5(9) ) 
( C#m  E  A5(9)  E  B5(9) ) 

[Terceiro Refrão]

C#m            A5(9)            E
Oh, if there's one thing I hang onto
                B5(9)
That gets me thru the night
C#m            A5(9)           E
I ain't gonna do what I don't want to
           B5(9)
I'm gonna live my life
  C#m                    A5(9)
Shining like a diamond, rolling with the dice
  E
Standing on the ledge
               B5(9)
I'll show the wind how to fly
          F#m
When the world gets in my face
      A5(9)
I say

             C#m  E  A5(9)  E
Have a nice day!
 B5(9)       C#m  E  A5(9)  E
Have a nice day!
 B5(9)       C#m  E  A5(9)  E
Have a nice day!
B5(9)         C#m       E      A5(9)         E  B5(9)
    When the world keeps trying     to drag me down
       C#m    E
Gotta raise my hands
 A5(9)        E  B5(9)  C#m  E  A5(9)   E
Gonna stand my ground I say         hey
 B5(9)      C#m  E  A5(9)  E
Have a nice day!
 B5(9)      C#m  E  A5(9)  E
Have a nice day!
 B5(9)
Have a nice day!
Composición de John Shanks / Jon Bon Jovi / Richie Sambora
Colaboración y revisión:
  • Vinícius Dias
5.089 vistas
    • ½ Tono
    • A
    • Bb
    • B
    • C
    • Db
    • D
    • Eb
    • E
    • F
    • F#
    • G
    • Ab
  • Agregar a la lista

    0 comentarios

    Ver todos los comentarios

    ¿Lograste tocar?

    40 Tocaron 0 Aún no

    ¡Graba un video tocando Have a Nice Day y envíanoslo!

    00:00 / 00:00
    Outros vídeos desta música
    Repetir Calidad Automático
    Outros vídeos desta música
    00:00 / 00:00
    Automático
    Capítulos
    • Início
    • Configuração dos Efeitos
    • Tocando a música
    • Acordes da música
    • Tocando Introdução
    • Ensinando Introdução
    • Tocando Primeira Parte
    • Ensinando Primeira Parte
    • Tocando Primeira Ponte
    • Ensinando Primeira Ponte
    • Tocando Refrão
    • Ensinando Refrão
    • Tocando Solo
    • Ensinando Solo
    • Exaplicações Finais e Encerramento
    OK