Cifra Club

Aprenda

In These Arms

Bon Jovi

Tab de bajo: Principal
Intro
||----------------|-----------------|---------------|-------------------||
||o-2-2----2-2----|-----2---2-2-----|-2-2----2-2----|-----2---2-2------o||
||o------2--------|---2---2-----4-2-|------2--------|---2---2-----2-4--o||
||--------------0-|-4---------------|-------------0-|-4-----------------||

Passagem
||---------------|--------------|---------------|---------------||
||---------------|--------------|---------------|-----------1---||
||-4-4----4-4----|h4p6-4-4-6-7--|------------4--|-2-----2-4---2-||
||------4------4-|--------------|-5-5--0-5-7----|-----2---------||

Chorus      
||------------------|-----------------|-----------------|------------------|
||o-----------------|-------------1---|---------------6-|------------------|
||o-----------------|-2-2-2-2-2-4---2-|-4-4-4-4-4-6-7---|---------------2--|
||--0-0-0-0-0-2-4-0-|-----------------|-----------------|-5-5-5-0-5-4-2----|

||-----------------|-----------------|-----------------|------------------|
||-----------------|-----------------|-----------------|-----------------o|
||-----------------|-4-4-4-4-4-6-7-4-|-2-2-2-2-2-2-2-2-|-0-0-0-0-0-2-4-0-o|
||-0-0-0-0-0-2-4-0-|-----------------|-----------------|------------------|

Passagem para o Solo
||-----------------|-----------------|
||-2-2-2-2-2-2-2-2-|-0-0-0-0-0-0-0-0-|
||-----------------|-----------------|
||-----------------|-----------------|

Solo
||------------------|-----------------|-----------------|-------------------||
||o-----------------|-----------------|-----------------|------------------o||
||o-----------------|-2-2-2-2-2-2-2-2-|-4-4-4-4-4-4-4-4-|------------------o||
||--0-0-0-0-0-0-0-0-|-----------------|-----------------|-5-5-5-5-5-5-5-5---||

Final
||------------------|-----------------|-----------------|-------------------||
||o-----------------|-----------------|-----------------|------------------o||
||o-----------------|-2-2-2-2-2-2-2-2-|-4-4-4-4-4-4-4-4-|------------------o||
||--0-0-0-0-0-0-0-0-|-----------------|-----------------|-5-5-5-5-5-5-5-5---||
Composição de David Bryan / Jon Bon Jovi / Richie Sambora
Colaboración y revision:
  • Rickson Farias
103 reproducciones

0 comentarios

Ver todos os comentários

¿Conseguiste tocar?

0 Tocaram 0 Ainda não

Grave um vídeo tocando In These Arms e nos envie!

00:00 / 00:00
outros vídeos desta música
repetir qualidade Automático
Outros vídeos desta música
00:00 / 00:00
Automático
OK