Cifra Club

It's My Life

Bon Jovi

Cifrado: Principal (guitarra y guitarra eléctrica)
tono: Cm
[Intro] C5/G

[Primeira Parte] 

  C5/G
This ain't a song for the broken-hearted
No silent prayer for faith-departed
  C5/G
I ain't gonna be just a face in the crowd
              F5/C
You're gonna hear my voice
When I shout it out loud

[Refrão] 

         C5
It's my life
      Ab5
It's now or never
Eb5                Bb/D
    I ain't gonna live forever
C5                 Ab5             Bb5
   I just want to live while I'm alive
( Bb  B )      C5
     (It's my life)
                    Ab5
My heart is like an open highway
Eb5
    Like Frankie said
   Bb/D
I did it my way
C5                 Ab5             Bb5
   I just want to live while I'm alive
( Bb    B )  C5/G
  It's my   life

[Intro] C5/G

[Segunda Parte] 

  C5/G
This is for the ones who stood their ground
For Tommy and Gina who never backed down
   C5/G
Tomorrow's getting hard make no mistake
 F5/C
Luck ain't even lucky
Got to make your owns breaks

[Refrão] 

         C5
It's my life
      Ab5
It's now or never
Eb5                Bb/D
    I ain't gonna live forever
C5                 Ab5             Bb5
   I just want to live while I'm alive
( Bb  B )      C5
     (It's my life)
                    Ab5
My heart is like an open highway
Eb5
    Like Frankie said
   Bb/D
I did it my way
C5                 Ab5             Bb5
   I just want to live while I'm alive
( Bb    B )  
  It's my    
 Ab5  Bb5  Ab5  F5
Life

[Tab - Solo] 

E|---------------------------------------------------|
B|---------------------------------------------------|
G|---------------------------------------------------|
D|---------------------------------------------------|
A|-5b6r5b6r5b6r5b6r5b6r5b6r5b6r5b6r5b6r5b6r5b6r5b6r--|
E|---------------------------------------------------|

E|---------------------------------------------------|
B|---------------------------4-6b8-----b8--b8--b8r6--|
G|-----------------------3/5-------------------------|
D|---------------------------------------------------|
A|-5b6r5b6r5b6r5\3~~---------------------------------|
E|---------------------------------------------------|

E|---------------------------------------------------|
B|-4---6---------------------------------------------|
G|---5---3/5~~---------------------------------------|
D|-----------------------1---------------------------|
A|------------------1/3-----1/3~~--------------------|
E|---------------------------------------------------|


( C5/G )
 Better stand tall when they're calling you out
Don't bend, don't break, baby, don't back down

[Refrão Final] 

         C5
It's my life
      Ab5
It's now or never
Eb5                Bb/D
    I ain't gonna live forever
C5                 Ab5             Bb5
   I just want to live while I'm alive
( Bb  B )      C5
     (It's my life)
                    Ab5
My heart is like an open highway
Eb5
    Like Frankie said
   Bb/D
I did it my way
C5                 Ab5             Bb5
   I just want to live while I'm alive
( Bb    B )  C5
  It's my   life
      Ab5
It's now or never
Eb5                Bb/D
    I ain't gonna live forever
C5                 Ab5             Bb5
   I just want to live while I'm alive
( Bb  B )      C5
     (It's my life)
                    Ab5
My heart is like an open highway
Eb5
    Like Frankie said
   Bb/D
I did it my way
C5                 Ab5             Bb5
   I just want to live while I'm alive
( Bb5   B5 )
  It's my   Life
00:00 / 00:00
Otros videos de esta canción
Repetir
Otros videos de esta canción
Composición de Jon Bon Jovi / Max Martin / Richie Sambora
41.327 vistas
    • ½ Tono
    • Am
    • Bbm
    • Bm
    • Cm
    • C#m
    • Dm
    • Ebm
    • Em
    • Fm
    • F#m
    • Gm
    • G#m
  • Agregar a la lista

    0 comentarios

    Ver todos los comentarios
    00:00 / 00:00
    Capítulos
    • Início
    • Tocando a música
    • Configuração do Efeito
    • Acordes da Introdução e Primeira Parte
    • Tocando Introdução e Primeira Parte
    • Ensinando Introdução e Primeira Parte
    • Acordes do Refrão
    • Tocando Refrão
    • Ensinando Refrão
    • Tocando Segunda Parte e Solo
    • Ensinando Solo
    • Ensinando Base do Solo
    • Ensinando Final
    • Encerramento
    OK