Cifra Club

Aprenda

Knockout

Bon Jovi

Tablatura: Principal (guitarra)
tono: D
Bm  G  A  A/F# x2

Bm                         G                       A             A/F#
Everyday I wake up with my back against the wall
Bm                         G                       A             A/F#
Anytime you get up someone wants to see you fall
       G                                Bm          A
If you're afraid to lose it all, you're never gonna win
     G                         Bm              A
I'll be giving you the finger, Sticking out my chin
G                 Bm       A
Boom, boom, boom
               G
Here comes the boom, boom, boom

               Bm
Here comes the knockout
           G
My time is right now
             A
Turning your lights out
    F#m  A   Bm
I'm throwing down 
               G
Here comes the knockout
          A
Until the last round
    F#m  A   Bm
I'm throwing down
           G                      A
Go start a fire, go start a fight
     A/F#                Bm
No regrets, this is your life
               G
Here comes the knockout
           A
My time is right now
    F#m  A   Bm
I'm throwing down

Bm  G  A  A/F# x2

        Bm                             G                     A        A/F#
Are you living in a nightmare, Are you living in a dream?
Bm                                   G                       A        A/F#
Do you stand for something, Will you fall for anything
     G                          Bm               A
It's easier to count me out but you can count me in
          G                      Bm              A
Cause I'm giving you the finger, Sticking out my chin
G                   Bm        A
Boom, boom, boom
               G
Here comes the boom, boom, boom
 
               Bm
Here comes the knockout
           G
My time is right now
             A
Turning your lights out
    F#m  A   Bm
I'm throwing down 
               G
Here comes the knockout
          A
Until the last round
    F#m  A   Bm
I'm throwing down
           G                      A
Go start a fire, go start a fight
     A/F#                Bm
No regrets, this is your life
               G
Here comes the knockout
           A
My time is right now
    
Solo: e|----------12-14-----14-14b15r14-12--12-12-12-12-9----12-12b14r12-10-12~------|
      B|-12-14-15--------15----------------------------------------------------------|
      G|-----------------------------------------------------------------------------|
      D|-----------------------------------------------------------------------------|
      A|-----------------------------------------------------------------------------|
      E|-----------------------------------------------------------------------------|

      e|-14-14-14-14-----14-14b15r14-12--12-12-12-12-9----12-12b14r12-10-9-----------|
      B|-------------15----------------------------------------------------12-12-12~-|
      G|-----------------------------------------------------------------------------|
      D|-----------------------------------------------------------------------------|
      A|-----------------------------------------------------------------------------|
      E|-----------------------------------------------------------------------------|
    
       F#m     Bm             G
I'm throwing  down, down, down
A
Down, down
   F#m       Bm             G
Throwing   down, down, down
A           F#m
Down, down

G
Did you really live your life
   Bm              A
Or did it pass you by?
G
What's it take to tell yourself
    Bm            A
You really were alive
G   Bm             A
    Look me in the eye

               Bm
Here comes the knockout
           G
My time is right now
             A
Turning your lights out
    F#m  A   Bm
I'm throwing down 
               G
Here comes the knockout
          A
Until the last round
    F#m  A   Bm
I'm throwing down
           G                      A
Go start a fire, go start a fight
     A/F#                Bm
No regrets, this is your life
               G
Here comes the knockout
           A
My time is right now
    F#m  A   Bm
I'm throwing down

Bm  G  A  A/F# x2

Solo Final: e|----------12-14-----14-14b15r14-12--12-12-12-12-9----12-12b14r12-10-12~------|
            B|-12-14-15--------15----------------------------------------------------------|
            G|-----------------------------------------------------------------------------|
            D|-----------------------------------------------------------------------------|
            A|-----------------------------------------------------------------------------|
            E|-----------------------------------------------------------------------------|

            e|-14-14-14-14-----14-14b15r14-12--12-12-12-12-9----12-12b14r12-10-12~---------|
            B|-------------15--------------------------------------------------------------|
            G|-----------------------------------------------------------------------------|
            D|-----------------------------------------------------------------------------|
            A|-----------------------------------------------------------------------------|
            E|-----------------------------------------------------------------------------|

            e|-14-14-14-14-----14-14b15r14-12--12-12-12-12-9----12s0-----------------------|
            B|-------------15--------------------------------------------------------------|
            G|-----------------------------------------------------------------------------|
            D|-----------------------------------------------------------------------------|
            A|-----------------------------------------------------------------------------|
            E|-----------------------------------------------------------------------------|
Composição de John Shanks / Jon Bon Jovi
Colaboración y revision:
  • Kevin Rui
  • Elton Carvalho
70 reproducciones
    • ½ Tono
    • A
    • Bb
    • B
    • C
    • Db
    • D
    • Eb
    • E
    • F
    • F#
    • G
    • Ab
  • Adicionar à lista

    0 comentarios

    Ver todos os comentários

    ¿Conseguiste tocar?

    0 Tocaram 0 Ainda não

    Grave um vídeo tocando Knockout e nos envie!

    00:00 / 00:00
    outros vídeos desta música
    repetir qualidade Automático
    Outros vídeos desta música
    00:00 / 00:00
    Automático
    OK