Cifra Club

Never Say Goodbye

Bon Jovi

Tablatura: Principal
reproducciones 4.422
Tono: D
[Intro]

    A          C#m      D           Dm
E|----------|--------|-----------|----------------|
B|----------|-----2--|-2h3-2-----|--2h3-2---------|
G|---4-4b6b4|---4----|-------4-2-|--------4-2-----|
D|-2--------|-2------|-----------|------------2~~-|
A|----------|--------|-----------|----------------|
E|----------|--------|-----------|----------------| 

A                         C#m
 As I sit in this smokey room  the night about to end 
G                                        D
 I pass my time with strangers, but the bottle's my only friend 
A                                  C#m
 Remember when we used to park on Butler Street out in the dark 
G                                    D
 Remember when we lost the keys and you lost more than that in my back seat, baby 
A                                     C#m
 Remember when we used to talk about busting out, we'd break their hearts

     G                D
E|-------------------------------------|
B|-------------------------------------|
G|-------------------------------------|
D|------0-------0~---------------0-----|
A|----2-------0--------2-3----0--------|
E|--3------2---------3------2----------|

 Together     Forever

   A                  C#m        D                Dm
E|----------------|--------9--|---9h10--9-------|9h10-9-----------|
B|----12-12b14b12-|----12-----|----------12--10-|--------12-10----|
G|-9--------------|-9---------|-----------------|-----------------|
D|----------------|-----------|-----------------|-----------------|  
A|----------------|-----------|-----------------|-----------------|
E|----------------|-----------|-----------------|-----------------|

    G  D    G   D
 Together  forever                                       
  A                  C#m
 Say goodbye, never say goodbye                          
D                                Dm
 You and me and my old friends, hoping it would never end      
  A                  C#m
 Say goodbye, never say goodbye                               
D                           Dm
 Holding on we got to try, holding on to never say goodbye   

A                                   C#m
 Remember days of skipping school, racing cars and being cool
G                                 D
 With a six pack and a radio, we didn't need no place to go 
A                                  C#m
 Remember at the prom that night, you and me we had a fight 
G                                               D
 But the band they played our favorite song and I held you in my arms so strong 
A                                              C#m
 We danced so close, we dance so slow, and I swore I'd never let you go


[Solo]  A  C#m  D  Dm  G

E|---------------------------------------------------------------------------|
B|--------------3-2---------5b7-b5--14b16b14b16-10---------------------------|
G|--------2--4------4b6b4-2--------------------------------------------------|
D|------2-----------------------------------------------3-5-5s7-----5-7-7s9--|
A|--2s4---------------------------------------------1s3---------3s5----------|
E|---------------------------------------------------------------------------|

E|---------------------------------------------------12b14~~--12-20b22b20b22b20-----|
B|-------------10h12p10--12h14p12--15-14-12h14p12-10----------------------------21~-|
G|6h7p6-9h11p9----------------------------------------------------------------------|
D|----------------------------------------------------------------------------------|
A|----------------------------------------------------------------------------------|
E|----------------------------------------------------------------------------------|

E|-13-16p13h15p13h16p13h15-------------------------15-18p15h17p15h18p15h17--|
B|-------------------------13-16p13h15p13h16p13h15--------------------------|
G|--------------------------------------------------------------------------|
D|--------------------------------------------------------------------------|
A|--------------------------------------------------------------------------|
E|--------------------------------------------------------------------------|

E|------------------------17~~------------|
B|-15-18p15h17p15h18p15h17----------------|
G|----------------------------------------|
D|----------------------------------------|
A|----------------------------------------|
E|----------------------------------------|

       A                                    C#m
Oh I guess you'd say we used to talk about busting out we'd break their hearts 


( A  C#m  D  Dm )
Acordes para:
    Compositor: Jon Bon Jovi / Richie SamboraColaboración y revision:
    • Marcos Paulo
    • Joao Gomes
    • Theo oliveira

    0 comentarios

      mostrar más comentarios

      ¿Conseguiste tocar?

      22tocaron0aún no

      ¡Graba un vídeo tocando Never Say Goodbye y envianoslo!

      00:00 / 00:00
      outros vídeos desta música
      repetirqualidadeautomática
      Outro vídeos desta música
        00:00 / 00:00
        automática
        OK