Cifra Club

This Ain't a Love Song

Bon Jovi

Tablatura: Principal
reproducciones 7.273
Tono: E
[Intro]

         E             B   D             A      Am            E
E|-------------------|-------------7-----|-------------------|
B|---9----9--9---9-7-|--7--7--7/9----5---|--5--5----------0--|
G|-------------------|---------------6---|--7------5---5-----|
D|------9------------|---------------7---|--7----7---7-------|
A|---7---------7---6-|--5----------------|-------------------|
E|-------------------|-------------------|----------------0--|
        B                             E
E|--0-----------------|----------------------|
B|--0-----------------|----------------------|
G|--4/6\4-------------|-----------4/6/8~~~8/9|
D|--------4/6\4-------|--------4-------------|
A|--------------------|---5/6----------------|
E|--------------------|----------------------|

  E
Should've seen it coming
  B
When the roses died
  D
Should've seen the end
          A
Of summer in your eyes

  Am
Should've listened when
              E
You said goodnight
     B
You really meant goodbye
E
Any baby ain't it funny
               B
How we never ever learn to fall
 D
You're really on your knees
  A
Think you're standing tall
 Am                  E
But only fools are know-it-alls
           B
And I've played fool for you

E|--------------------------------|
B|--------------------------------|
G|--------------------------------|
D|---------------2----------------|
A|---2-2-2h4-4-----4p2-4----------|
E|----------------------------4---|

A                        C#m
I cried and cried every night
                     B
Till I died for you baby
A                       C#m
I tried and I tried to deny it
                     B
Your love drove me crazy baby
E                                     B/D#
If the love that I've got for you is gone
         C#m                C#m/B       A
And if the river I've cried ain't that long
  E                       B
Then I'm wrong yeah I'm wrong
     A
This ain't a love song

 E
Baby I thought you and me would
               B
Stand the test of time
 D                         A
Like we got away with the perfect crime
 Am                       E
But we were just a legend in my mind
B
I guess that I was blind

 E
Remember those nights dancing
        B
At the masquerade
  D
The clowns wore smiles
  A
That wouldn't fade
 Am                  E
But you and I were the renegades
     B
And some things never change
A                           C#m
It made me so sad 'cause I wanted
                B
It band for us baby
A                            C#m
And now it's so sad that whatever we had
             B
Ain't worth saying oh oh oh
        E                             B
If the love that I've got for you is gone
         C#m                            A
And if the river I've cried ain't that long
           E              B
Then I'm wrong yeah I'm wrong
           A
This ain't a love song
        E                          B/D#
If the pain that I'm feeling so strong
        C#m           A
Is the reason I'm holding on
           E              B
Then I'm wrong yeah I'm wrong
     A
This ain't a love song

[Solo]

E|----------------------|-------------------|-------------------------------------|
B|---10b12--10b12-------|-------------7-----|--7-----7-------9b11-9b11--9b11------|
G|----9------9----9-7-9-|--------7----7-----|--7-----7-----------------------9--9~|
D|----------------------|--------7----9h7---|--9h7---9h7--------------------------|
A|----------------------|--7-9-7---9------9-|------9------9-----------------------|
E|----------------------|-------------------|-------------------------------------|

E|----------------------|-------12b14---10-12|--10--14b15--14--------------------------------------------------|
B|---X-X---10b12--10----|--------------------|-----------------12----12-10---12-10----12-10----12-10---- 12b14-|
G|----------------------|-2s11---------------|-----------------------------11------11-------11--------11-------|
D|----------------------|--------------------|-----------------------------------------------------------------|
A|----------------------|--------------------|------9------9---------------------------------------------------|
E|----------------------|--------------------|-----------------------------------------------------------------|

A                          C#m
I cried and I cried every night
                     B
Till I died for you baby
A                       C#m
I tried and I tried to deny it
                     B
Your love drove me crazy
        E                             B/D#
If the love that I've got for you is gone
        C#m          C#m/B       A
If the river I cried ain't that long
           E              B
Then I'm wrong yeah I'm wrong
           A
This ain't a love song
           E              B
Then I'm wrong yeah I'm wrong
           A
This ain't a love song

         E             B   D             A      Am            E
E|-------------------|-------------7-----|-------------------|
B|---9----9--9---9-7-|--7--7--7/9----5---|--5--5----------0--|
G|-------------------|---------------6---|--7------5---5-----|
D|------9------------|---------------7---|--7----7---7-------|
A|---7---------7---6-|--5----------------|-------------------|
E|-------------------|-------------------|----------------0--|
                   B                             E
E|--0-----------------|----------------------|
B|--0-----------------|----------------------| 
G|--4/6\4-------------|-----------4/6/8~~~8/9|
D|--------4/6\4-------|--------4-------------|
A|--------------------|---5/6----------------|
E|--------------------|----------------------|

0 comentarios

    mostrar más comentarios

    ¿Conseguiste tocar?

    9tocaron0aún no

    ¡Graba un vídeo tocando This Ain't a Love Song y envianoslo!

    00:00 / 00:00
    outros vídeos desta música
    repetirqualidadeautomática
    Outro vídeos desta música
      00:00 / 00:00
      automática
      OK