Notificações Amigos pendentes

      Bon Jovi

      Wanted Dead Or Alive

      7.671 reproducciones
      Tono: G
      Intro:
      
      
      E|-------13----------12----------10----------8--------5---------3---------1------|
      B|-------------------------------------------------------------------------------|
      G|----14----14----12----12----10----10----9----9----5----5----4----4----2----2---| 2x
      D|--0-----------0-----------0----------0---------0---------0---------0---------0-|
      A|-------------------------------------------------------------------------------|
      E|-------------------------------------------------------------------------------|
      
      
                 C     F    Dadd2           C     F    Dadd2                  D5
      E|-----------------0--------|------------------0--------|-------------x--|
      B|-------------------3---3--|--------------------3---3--|-------------x--|
      G|---------------------2---2|----------------------2---2|-------------7--|
      D|--------0-3-0-------------|---------0-3-0-------------|-------------7--|
      A|--0-0-3-------------------|---0-0-3-------------------|---0-0-3-2---5--|
      E|--------------------------|---------------------------|-------------x--|
      
      
          D         (D Dsus4 Dadd9)  C                   G
      It's all the same,             only the names will change.
         C     G                 C  F     D
      Ev'ryday,  seems we're wasting away.
          D         (D  Dsus4  Dadd9)   C                   G
      Another place,                  where the faces are so cold.
         C        G              C  F     D
      I travel all night just  get back  home.
      
      (refrão)
              C      G       F             D  Dadd2
      I'm  a cowboy,   on a steel horse I ride
              C   G      F          D  Dadd2
      I'm wanted,  dead or alive.
          C   G      F          D  Dadd2
      Wanted,  dead or alive.
      
          D             (D#4  D  Dadd9)    C                  G
      Sometimes I sleep,             sometimes it's not for days.
      C                 G   C             F        D
      And people I meet,  always go their seperate ways.
          D             (D#4  D  Dadd9)    C          G
      Sometimes you tell the day by the bottle that you drink.
      C                    G       C       F      D
      And times when you're  alone all you do is drink.
      
      (Refrão)
      (Intro 2x)
      
      Solo:
      
      
                                  AH|-----------------|
      E|------------------------------------------------------|
      B|------------------------------------------------------|
      G|-------7-7-7---7--7-7---------------------------------|
      D|-------x-x-x---x--x-x-------------3-5b7-5b7-5b7-5b7-3-|
      A|-------5/3/5---5--3/5---3-5---------------------------|
      E|------------------------------------------------------|
      
      
                                                            AH
      
      E|-------------13-15-15b17-15-13-15-15b17-------------------------------------------|
      B|-------13-15----------------------------------------------------------------------|
      G|-12-14----------------------------------------------------------------------------|
      D|----------------------------------------------------5b7---------7/5-5/7-----------|
      A|--------------------------------------------12/----------0-0----5/3-3/5------12/--|
      E|--------------------------------------------12/------------------------------12/--|
      
      
                AH        AH|-----|
      
      E|-----------------------------------------------------|
      B|-----------------------------------------------------|
      G|-----------------------------------------------------|
      D|--------3---------3-5-5b7-3------3-----------5b7-3---|
      A|---3-5----5--3-5-------------------5-3p0h3-5---------|
      E|-----------------------------------------------------|
      
      
                          AH|------| PM|---------|
      
      E|------------------------------------------------x-----|
      B|-----13---------15------------------------------3-----|
      G|--12---12-10-12-----12b14-10--------------------2-----|
      D|-------------------------------7-7-5-9-7-5------0-----|
      A|-------------------------------5-5-3-7-5-3------------|
      E|------------------------------------------------------|
      
      
      (***após o solo as notas power chords, inclusive o refrão)
      (lembra-se que o guitarrista troca o violão de 12 cordas por uma guitarra antes do solo)
      
      Refrão:
      
       D5                     C5                   G5
      I walk these streets, a loaded six string on my back.
        C5              G5         C5        F5      D5
      I play for keeps,  cause I might not make it back.
       D5                        C5             G5
      I've been everywhere, still I'm standing tall.
           C5               G5              C5    F5   D5
      I've seen a million faces, and I've rocked them all.
      
      Passagem: ( é usada nas versões ao vivo. O richie sambora faz este improviso)
      
      E|--------------------------------------10-----------10---------------------------------|
      B|------------------------------------10---12b e vbr----13-10---------------------------|
      G|-------------10-12(bend-------10-12b------------------------12b-10----12-10-----------|
      D|----------12-----vibrato)--12--------------------------------------12------12-/-12-10-|
      A|-------12-----------------------------------------------------------------------------|
      E|-10-13--------------------------------------------------------------------------------|
      
      
      E|------------------------|
      B|------------------------|
      G|------------------------|
      D|------------------------|
      A|-12/10--/8--------------|
      E|-----------10-----------|
      
      
      (Refrão 2x)
      (Intro 2x) D é o último acorde
      
      (versos e refrão)
      
      (versos)
      
      
                D         (D Dsus4 Dadd9)   C                   G
      E|---2-------2-----2-3-2-0--0^2--3--------3----------3-----------|
      B|---3-------3-----3-3-3-3--3----3--------3----------3-----------|
      G|---2-------2-----2-2-2-2--2----0--------0----------0-----------|
      D|---0-------0-----0-------------2--------2----------0-----------2
      A|-------------------------------3--------2----------2------02b0-
      E|---------------------------------------------------3-----------|
      
        It's all the same,              only the names will change.
        Another place,                  where the faces are so cold.
      
      
      
               C        G               C  F     D
      E|--3---3----3----3-------3--3--1-----2--2-3-0^2------------|
      B|--3---3----3----3-------3--3--1-----3--3-3-3-3------------|
      G|--0---0----0----0-------0--0--0-----2--2-2-2-2------------|
      D|--2---2----0----0-------0--2--3-----0--0-0-0-0------------|
      A|--3---3----2----2-------2--3--3---------------------------|
      E|-----------3----3-------3---------------------------------|
      
          Ev'ryday,     seems we're wasting away.
        I travel all night just    get back  home.           I'm
      
      (refrão)
      
      
                C        G              F             D
      E|---3----3---3--------------1-----1-------2-----2-3-0^2-----|
      B|---3----3---3--------------1-----1-------3-----3-3-3-3-----|
      G|---0--------0--------------0-----0-------2-----2-2-2-2-----|
      D|---2--------0--------------3-----3-------0-----0-0-0-0-----|
      A|---3-----------------------3-----3-------------------------|
      E|------------3----------------------------------------------|
      
          a cowboy,            on a steel horse I ride.          I'm
      
      
      E|---3----3---3----------------------2--------------|
      B|---3----3---3----------------------3--------------|
      G|---0--------0-------------2--2--2--2--------------|
      D|---2--------0-------------x--0--3--0--------------|
      A|---3----------------------3-----------------------|
      E|------------3-------------------------------------|
      
           wanted,               dead or alive.
           wanted,               dead or alive.
        Composición: Jon Bon Jovi / Richie SamboraColaboración y revision:
        • Matheus
        • Renan Camargo
        • da SIlva

        Comentarios 54

        140 .
        • jesse jesse: Em 24/07/2016 20:33

          Galera do Cifra Club , vídeo aula por favor desta musica!

        • matheus matheus: Em 21/07/2016 19:10

          quero video aulaaaaaaa

        • nilton nilton: Em 14/05/2016 14:01

          Ai Gustavo Fofão, faz uma video aula ai por favor!!!

        • Lucas Lucas: Em 28/03/2016 12:19

          video aulaa

        • Rafael Rafael: Em 06/09/2015 09:56

          Cadê a vídeo aula?

        • Mizinho Mizinho: Em 10/08/2015 17:00

          faz video aula ae mano

        • Leonardo Leonardo: Em 13/06/2015 14:31

          Está música precisa de vídeo aula mesmo, merece...

        • vinicios.gastondasilva vinicios.gastondasilva: Em 10/06/2015 21:24

          Por favor, VIDEO AULA DESSA MUSICA MARAVILHOSA!

        • Leonardo Leonardo: Em 08/06/2015 13:49

          Quem tirou a música está de parabéns, certinha!

          • Fernando Fernando: Em 17/09/2015 19:49

            so errou o tom que e : F e nao G

        140 cancelar

        ¿conseguiste tocar?

        • •••
        Yanara Oliveira391 visualizações
          ver cover de otras canciones »
          0:00 / 0:00

          Capitulos

            1 versão de guitarra dificuldad reproducciones contribuición y correción
            1 versão de guitarra eléctrica dificuldad reproducciones contribuición y correción
            1 versão de cavaco dificuldad reproducciones contribuición y correción
            1 versão de teclado dificuldad reproducciones contribuición y correción
            2 versões de contrabajo reproducciones contribuición y correción
            3 versões de Guitar Proformatodownloadscontribuición
            play/pausefechar subir/bajar velocidad
            6ª cuerda E5ª cuerda A4ª cuerda D3ª cuerda G2ª cuerda B1ª cuerda E
              acordes
              publicidad
              cerrar
              ok