Cifra Club

Break Apart (feat. Rhye)

Bonobo

Cifrado: Principal (guitarra y guitarra eléctrica)
Selo Cifra Club: esta cifra foi revisada para atender aos critérios oficiais da nossa Equipe de Qualidade.
tono: G
[Intro] Dm  Am  Dm  Am

E|--5---------5--------5--------5-------5-------5---------|
B|----6---6-----6---6----6---6----6---6---6---6---6---6---|
G|------7---------7--------7--------7-------7-------7-----|
D|--------------------------------------------------------|
A|--------------------------------------------------------|
E|--------------------------------------------------------|

E|--5---------5--------5--------5-------5-------5---------|
B|----6---6-----6---6----6---6----6---6---6---6---6---6---|
G|------5---------5--------5--------5-------5-------5-----|
D|--------------------------------------------------------|
A|--------------------------------------------------------|
E|--------------------------------------------------------|

[Riff]

E|--8---------8--------8--------3-------1---------|
B|----10---10---10--10---10--10---5--5---3---3----|
G|------9---------9--------9--------4------2------|
D|------------------------------------------------|
A|------------------------------------------------|
E|------------------------------------------------|

[Primeira Parte]

F                               Am
  It's hard to take all of this hate
Bb                              F          Am    Bb
  It's hard to take all of this hate, this hate

( F  Am Bb )
( F Bb Am )

[Segunda Parte]

F                Dm                Am
  First move they think they never saw
                 Bb                  F 
  Be careful with me, be careful with
Am               Bb              F
  Oooohh   ohoohoo Gentle with me

[Refrão]

Am                       Bb
  I should've heard your fear
             Am             Bbm7
So wasteful, yeah, so wasteful
Bb                        Am      
  I should've heard your needs
            Bbm7          Am            F   Am 
So wasteful,   so wasteful, so wasteful

[Terceira Parte]

                          Bb
We've thrown apart these pieces
                          F Am
We've thrown apart these pieces
             Bbm7             
So, I don't go home
         F    Am         Bb     A  Am
Tell me love,    tell me love

( Bb  Dm )

            Bbm7                Bb
You're my favourite, you're my favourite
              C                      
But we're phasing, but we're phasing
           Bb                              
You're my favourite, you're my favourite
              C                       
But we're phasing, but we're phasing
                Gm                                          
You're my favourite, you're my favourite
              F                  Am               
But we're phasing, but we're phasing
          Bb                             
You're my favourite, you're my favourite
            F                                  
You're my

( G5 G  )

[Quarta Parte]

F
Instead of something to break apart
                   Bbm7 
Instead, it's just broke apart
Bb                       F                             
  Stand up and shake this heart
                     Bb
Instead, it's just a break apart from us

[Refrão]

                        F
I should've heard your fear
             Bb
Shame on me
                       F 
I should've heard your needs
              Dm     
Shame on me

          Am     F         Bb
Help me out, on me, help me out, on me
          F                Bb
Help me out, on me, help me out, on me
          F     Am         Bb             
Help me out, on me, help me out, on me
          F     Gm  Am  Bb  Dm
Help me out
Otros videos de esta canción
    226 exhibiciones
      • ½ Tono
      • A
      • Bb
      • B
      • C
      • Db
      • D
      • Eb
      • E
      • F
      • F#
      • G
      • Ab
    • Agregar a la lista

    Afinación de cifrado

    Afinador online

      OK