Cifra Club

Sol Forastero

Miguel Bosé

Cifrado: Principal (guitarra y guitarra eléctrica)
tono: Em
Intro(X2):

-Gtrra. Eléctrica:

     Em                           B
E|-12-12-12-12-12-12-12-12-12-|-11-11-11-11-11-11-11-11-11-|
B|-12-12-12-12-12-12-12-12-12-|-12-12-12-12-12-12-12-12-12-|
G|-12-12-12-12-12-12-12-12-12-|-11-11-11-11-11-11-11-11-11-|
D|----------------------------|----------------------------|
A|----------------------------|----------------------------|
E|----------------------------|----------------------------|

     Bm                           A
E|-10-10-10-10-10-10-10-10-10-|--9--9--9--9--9--9--9--9--9-|
B|-12-12-12-12-12-12-12-12-12-|-10-10-10-10-10-10-10-10-10-|
G|-10-10-10-10-10-10-10-10-10-|--9--9--9--9--9--9--9--9--9-|
D|----------------------------|----------------------------|
A|----------------------------|----------------------------|
E|----------------------------|----------------------------|

E|-Sax| :

E|--5------7------|--5--------------|
B|-----5------7---|-----5--3--5-----|
G|----------------|--------------2--|
D|----------------|-----------------|
A|----------------|-----------------|
E|----------------|-----------------|

*Verso:


Em
Tu que nunca quisiste,
 B
oír hablar de América,
 Bm                    A
ahora vas y dices que te quieres ir pa’allá.

Em
Si ni siquiera sabes,
 B
dónde esta California,
Bm
me cuentas que ahora mueres por
 A
ponerte morena allá.

                 Em                           B
Bajo un sol forastero,
E|-12-12-12-12-12-12-12-12-12-|-11-11-11-11-11-11-11-11-11-|
B|-12-12-12-12-12-12-12-12-12-|-12-12-12-12-12-12-12-12-12-|
G|-12-12-12-12-12-12-12-12-12-|-11-11-11-11-11-11-11-11-11-|
D|----------------------------|----------------------------|
A|----------------------------|----------------------------|
E|----------------------------|----------------------------|
                 Bm                            A
bajo un sol forastero.
E|-10-10-10-10-10-10-10-10-10-|--9--9--9--9--9--9--9--9--9-|
B|-12-12-12-12-12-12-12-12-12-|-10-10-10-10-10-10-10-10-10-|
G|-10-10-10-10-10-10-10-10-10-|--9--9--9--9--9--9--9--9--9-|
D|----------------------------|----------------------------|
A|----------------------------|----------------------------|
E|----------------------------|----------------------------|

E|-Sax| :

E|--5------7------|--5--------------|
B|-----5------7---|-----5--3--5-----|
G|----------------|--------------2--|
D|----------------|-----------------|
A|----------------|-----------------|
E|----------------|-----------------|


Em
Y ahora de repente,
B
te pones camiseta New York,
E|------------------------|
B|-3h5-0h2----------------|
G|---------0h2--------0---|
D|-------------1h2--2---2-|
A|------------------------|
E|------------------------|
Bm                   A
y no tienes idea de qué tiempo hará.


*Puente:

                 Em
Bajo un sol forastero,
                B  (riff)                 riff:  C/Dimtorción
un forastero seré                      1. ------------------------|
               Bm                      2. -3h5-0h2----------------|
bajo un cielo negro,                   3. ---------0h2--------0---|
                A                      4. -------------1h2--2---2-|
extranjero hablaré.                    5. ------------------------|
E|------------------------|


*Coro:

          Em
Pero que mito, hey!! qué barras ni que estrellas,
           B
de qué me hablas chica, mira que te ciegas,
           Bm
pero qué libertad, qué clase de cultura,
           A
pero qué gringo mandingo, ni que polla dura.


          Em
Pero qué presidente, ni qué rascacielos,
          B
pero qué sociedad que vive sin camelos,
          Bm
pero qué coño dices, mira cómo comes,
            A
que si que ve, ve, ve, de donde dan las tomes.




       Em     B
Yeh eehhhh, (Forastero)
    Bm        A
            (Forastero)



Yeh eehhhh...

     Em                           B
E|-12-12-12-12-12-12-12-12-12-|-11-11-11-11-11-11-11-11-11-|
B|-12-12-12-12-12-12-12-12-12-|-12-12-12-12-12-12-12-12-12-|
G|-12-12-12-12-12-12-12-12-12-|-11-11-11-11-11-11-11-11-11-|
D|----------------------------|----------------------------|
A|----------------------------|----------------------------|
E|----------------------------|----------------------------|

     Bm                           A
E|-10-10-10-10-10-10-10-10-10-|--9--9--9--9--9--9--9--9--9-|
B|-12-12-12-12-12-12-12-12-12-|-10-10-10-10-10-10-10-10-10-|
G|-10-10-10-10-10-10-10-10-10-|--9--9--9--9--9--9--9--9--9-|
D|----------------------------|----------------------------|
A|----------------------------|----------------------------|
E|----------------------------|----------------------------|

E|-Sax| :

E|--5------7------|--5--------------|
B|-----5------7---|-----5--3--5-----|
G|----------------|--------------2--|
D|----------------|-----------------|
A|----------------|-----------------|
E|----------------|-----------------|


*Verso:

Em
Justo ayer me decías,
 B
mañana iremos al mar,
Bm
explica entonces que es esto
       A
de un vuelo intercontinental.


Em
Cariño hablemos despacio,
 B
la vida allá es triste,
Bm
se duerme poco, se gasta mucho,
      A
y se come ese pan de alpiste.


*Puente:

                 Em
Bajo un sol forastero,
E|-12-12-12-12-12-12-12-12-12-|
B|-12-12-12-12-12-12-12-12-12-|
G|-12-12-12-12-12-12-12-12-12-|
D|----------------------------|
A|----------------------------|
E|----------------------------|
                B  (riff)
un forastero seré
E|-11-11-11-11-11-11-11-11-11-|
B|-12-12-12-12-12-12-12-12-12-|
G|-11-11-11-11-11-11-11-11-11-|
D|----------------------------|
A|----------------------------|
E|----------------------------|
               Bm
bajo un cielo negro,
E|-10-10-10-10-10-10-10-10-10-|
B|-12-12-12-12-12-12-12-12-12-|
G|-10-10-10-10-10-10-10-10-10-|
D|----------------------------|
A|----------------------------|
E|----------------------------|
                A
extranjero hablaré.
E|--9--9--9--9--9--9--9--9--9-|
B|-10-10-10-10-10-10-10-10-10-|
G|--9--9--9--9--9--9--9--9--9-|
D|----------------------------|
A|----------------------------|
E|----------------------------|



*Coro:

          Em
Pero que mito, hey!! qué barras ni que estrellas,
           B
de qué me hablas chica, mira que te ciegas,
           Bm
pero qué libertad, qué clase de cultura,
           A
pero qué gringo mandingo, ni que polla dura.


          Em
Pero qué presidente, ni qué rascacielos,
          B
pero qué sociedad que vive sin camelos,
          Bm
pero qué coño dices, mira cómo comes,
            A
que si que ve, ve, ve, de donde dan las tomes.


       Em     B
Yeh eehhhh, (Forastero)
    Bm        A
            (Forastero)


      Em                                B
Yeh ehhhh,                            [Forastero]
E|-12-12-12-12-12-12-12-12-12-|-11-11-11-11-11-11-11-11-11-|
B|-12-12-12-12-12-12-12-12-12-|-12-12-12-12-12-12-12-12-12-|
G|-12-12-12-12-12-12-12-12-12-|-11-11-11-11-11-11-11-11-11-|
D|----------------------------|----------------------------|
A|----------------------------|----------------------------|
E|----------------------------|----------------------------|

    Bm                            A
Bajo un sol forastero, bajo un sol forastero, bajo un sol, bajo un sol forastero,
E|-10-10-10-10-10-10-10-10-10-|--9--9--9--9--9--9--9--9--9-|
B|-12-12-12-12-12-12-12-12-12-|-10-10-10-10-10-10-10-10-10-|
G|-10-10-10-10-10-10-10-10-10-|--9--9--9--9--9--9--9--9--9-|
D|----------------------------|----------------------------|
A|----------------------------|----------------------------|
E|----------------------------|----------------------------|


      Em                                B
Yeh ehhhh,                            [Forastero]
E|-12-12-12-12-12-12-12-12-12-|-11-11-11-11-11-11-11-11-11-|
B|-12-12-12-12-12-12-12-12-12-|-12-12-12-12-12-12-12-12-12-|
G|-12-12-12-12-12-12-12-12-12-|-11-11-11-11-11-11-11-11-11-|
D|----------------------------|----------------------------|
A|----------------------------|----------------------------|
E|----------------------------|----------------------------|

    Bm                            A
                                (Forastero)
E|-10-10-10-10-10-10-10-10-10-|--9--9--9--9--9--9--9--9--9-|
B|-12-12-12-12-12-12-12-12-12-|-10-10-10-10-10-10-10-10-10-|
G|-10-10-10-10-10-10-10-10-10-|--9--9--9--9--9--9--9--9--9-|
D|----------------------------|----------------------------|
A|----------------------------|----------------------------|
E|----------------------------|----------------------------|


      Em                                B
Yeh ehhhh,                            [Forastero]
E|-12-12-12-12-12-12-12-12-12-|-11-11-11-11-11-11-11-11-11-|
B|-12-12-12-12-12-12-12-12-12-|-12-12-12-12-12-12-12-12-12-|
G|-12-12-12-12-12-12-12-12-12-|-11-11-11-11-11-11-11-11-11-|
D|----------------------------|----------------------------|
A|----------------------------|----------------------------|
E|----------------------------|----------------------------|

    Bm                            A
                                (Forastero)
E|-10-10-10-10-10-10-10-10-10-|--9--9--9--9--9--9--9--9--9-|
B|-12-12-12-12-12-12-12-12-12-|-10-10-10-10-10-10-10-10-10-|
G|-10-10-10-10-10-10-10-10-10-|--9--9--9--9--9--9--9--9--9-|
D|----------------------------|----------------------------|
A|----------------------------|----------------------------|
E|----------------------------|----------------------------|
                                                           (Fade out)
Composición de Bosé / Ferrario / Grilli
13 vistas
    • ½ Tono
    • Am
    • Bbm
    • Bm
    • Cm
    • C#m
    • Dm
    • Ebm
    • Em
    • Fm
    • F#m
    • Gm
    • G#m
  • Agregar a la lista

    0 comentarios

    Ver todos los comentarios

    ¿Lograste tocar?

    0 Tocaron 0 Aún no

    ¡Graba un video tocando Sol Forastero y envíanoslo!

    00:00 / 00:00
    Outros vídeos desta música
    Repetir Calidad Automático
    Outros vídeos desta música
    00:00 / 00:00
    Automático
    OK