Cifra Club

Solo pienso en ti

Miguel Bosé

Cifrado: Principal (guitarra y guitarra eléctrica)
tono: G
INTRO 2 VECES

    G             C          D             C          D
E|----7-----7------8-----8----10-----10----8-----8----7-----7--|
B|------8-----8------5-----------7-----------5----------8------|
G|--7-----7------5-----5----7------7-----5-----5----7-----7----|
D|--9------------5----------7------------5----------9----------|
A|-------------------------------------------------------------|
E|-------------------------------------------------------------|

    D             Em        C          G              D
E|----5-----5----3-----3----3-----3----7-----7----5-----5--|
B|------7----------5------------5--------8----------7------|
G|--7-----7----4-----4----5---5------7-----7----7-----7----|
D|--7----------5----------5----------9----------7----------|
A|---------------------------------------------------------|
E|---------------------------------------------------------|



            G    C            G   D
Me pongo a pintarte y no lo consigo
            Em          G                D
después de estudiarte lentamente termino pensando,
    G     C             G   D
que faltan sobre mi paleta
        Em              G               D
colores intensos que reflejen tu rara belleza.


    C   D            G    Em
No puedo captar tu sonrisa,
           C         D               G
plasmar tu mirada, no, pero poco a poco,
C              G   D              Em
sólo pienso en ti, sólo pienso en ti,
C             G   D              G
sólo pienso en ti, sólo pienso en ti . . .


           G    C             G    D
Tu sigues viniendo y sigues posando
           Em              G                     D
con mucha paciencia porque siempre mi lienzo está blanco,
     G   C            G     D
las horas se pasan volando
            Em           G             D
y hay poco trabajo adelantado para tu retrato.


    C   D            G   Em
Sospecho que no tienes prisa
             C    D              G
y que te complace ver que poco a poco,
C              G   D              Em
sólo pienso en ti, sólo pienso en ti,
C             G   D              G
sólo pienso en ti, sólo pienso en ti
C             G   D              Em
sólo pienso en ti, sólo pienso en ti,
C             G   D              G
sólo pienso en ti, sólo pienso en ti . . .
00:00 / 00:00
Otros videos de esta canción
Repetir
Otros videos de esta canción
Composición de R. Garcia Blanca
73 exhibiciones
    • ½ Tono
    • A
    • Bb
    • B
    • C
    • Db
    • D
    • Eb
    • E
    • F
    • F#
    • G
    • Ab
  • Agregar a la lista
    00:00 / 00:00
    OK