Enviar cifraEntrar

More Than A Feeling

Boston

Acordes: Principal
reproducciones 3.978
Tono: G
(riff 1 - toda a música)
(riff 2 - refrão)

(riff 1)

E|----------3--2---------------------------------
B|----3-----------3-----------3--------3---------
G|-------2------------0-----0--------0-------0---
D|--0--------------------------------------------
A|-----------------------3--------2--------------
E|---------------------------------------3-------


(solo antes do riff 2)

(guitarra 1)

E|---7s8-7--8p75--7h8p7h5h7p3~~~~------
B|-------------------------------------
G|-------------------------------------
D|-------------------------------------
A|-------------------------------------
E|-------------------------------------


(guitarra 2) (quando chegar na casa um segure
 a nota e de um slide com a palheta)

E|------------------------------
B|------------------------------
G|------------------------------
D|------------------------------
A|------------------------------
E|-----------------12s>>>>>1~---


   (riff 2) G5          C5            E5          D5
E|------------------------------------------------
B|------------------------------------------------
G|-------------5--5--5--5-----9--9--9---7--7--7--7
D|5---5---5----5--5--5--5-----9--9--9---7--7--7--7
A|5---5---5----3--3--3--3-----7--7--7---5--5--5--5
E|3---3---3---------------------------------------


(riff 1)
I looked out this morning and the sun was gone
Turned on some music to start my day
I lost myself in a familiar song
I closed my eyes and I slipped away

(riff 2)
It´s more than a feeling, when I hear that
old song they used to play (more than a feeling)
I begin dreaming (more than a feeling)
´till I see Marianne walk away
I see my Marianne walkin´ away

(riff 1)
So many people have come and gone
Their faces fade as the years go by
Yet I still recall as I wander on
as clear as the sun in the summer sky

(riff 2)
It´s more than a feeling, when I hear that
old song they used to play (more than a feeling)
I begin dreaming (more than a feeling)
´till I see Marianne walk away
I see my Marianne walkin´ away

(riff 1)
When I´m tired and thinking cold
I hide in my music, forget the day
and dream of a girl I used to know
I closed my eyes and she slipped away
She slipped awa y. She slipped away.

(riff 2)
It´s more than a feeling, when I hear that
old song they used to play (more than a feeling)
I begin dreaming (more than a feeling)
´till I see Marianne walk away
I see my Marianne walkin´ away

Solo:

E|---------------------------------------------------------------------------|
B|------------7---7-8--7h8p7-------8s10------------------------------------|
G|---6--7--9------------------9-7--------------------------------------------|
D|---------------------------------------------------------------------------|
A|---------------------------------------------------------------------------|
E|---------------------------------------------------------------------------|


E|---------------------------------------------------------------------------|
B|------8--7h8p7------7--------------------------------------------------|
G|---7------------9-7-------------------------------------------------------|
D|---------------------------------------------------------------------------|
A|---------------------------------------------------------------------------|
E|---------------------------------------------------------------------------|


E|---------------------------------------------------------------------------|
B|------8--7h8p7-------------------------------------------------------------|
G|---7------------9--7--9b10b9--7--6-----------------------------------------|
D|-----------------------------------7----------------------------------------|
A|---------------------------------------------------------------------------|
E|---------------------------------------------------------------------------|


E|---------------------------------------------------------------------------|
B|------7-7--8--7h8p7--------10b12r10----------------------------------------|
G|---------------------9-7-----------------------------------------------|
D|--------------------------------------------------------------------------|
A|---------------------------------------------------------------------------|
E|---------------------------------------------------------------------------|


E|---------------------------------------------------------------------------|
B|---8--7h8p7---7--------------------------------------------------------|
G|------------9--------------------------------------------------------------|
D|---------------------------------------------------------------------------|
A|---------------------------------------------------------------------------|
E|---------------------------------------------------------------------------|


E|---------------------------------------------------------------------------|
B|------8--7h8p7---------------------------------------------------------|
G|---7------------9-7-9--------------------------------------------------------|
D|---------------------------------------------------------------------------|
A|---------------------------------------------------------------------------|
E|---------------------------------------------------------------------------|


E|---------------------------------------------------------------------------|
B|-----7----------------------------------------------------------------------|
G|---7---9---7h9p7--6-7------------------------------------------------------|
D|---------------------------------------------------------------------|
A|---------------------------------------------------------------------------|
E|---------------------------------------------------------------------------|


E|---------------------------------------------------------------------------|
B|---14h15p14------17b19-----------------------------------------------------|
G|-------------16------------------------------------------------------------|
D|---------------------------------------------------------------------------|
A|---------------------------------------------------------------------------|
E|---------------------------------------------------------------------------|
  • 1
  • 2
  • 3
  • 4
  • 5
  • 6
  • 7
  • 8
  • 9
  • 10
  • 11
  • 12
    Acordes para:

      0 comentarios

        mostrar mas comentarios

        ¿Conseguiste tocar?

        33tocaron2aún no

        ¡Grave un vídeo tocando More Than A Feeling y envie para nosotros!

        00:00 / 00:00
        outros vídeos desta música
        repetirqualidadeautomática
        • automática
        Outro vídeos desta música
          00:00 / 00:00
          automática
          • automática
          cerrarplay/pause subir/bajar velocidad
            acordes
            cerrar
            OK
            Feedback