Cifra Club

More Than A Feeling

Boston

Tablatura: Principal (guitarra)
reproducciones 5.609
Tono: Em
Introdução: D  C9  G/B  G

(Violão)

     D                C9    G/B   G
E|-------3---2-------3-----3----------------|
B|---3---------3-------3-----3---3----------|
G|-----2---2-----0--------------------------|   (4x)
D|-0----------------------------------------|
A|-----------------3-----2------------------|
E|-----------------------------3------------|

(Guitarra)

  H.N   .    .   .    .
E|-----------------------------------------------------|
B|-7------------------7--------------------------------|
G|-7------------------7--------------------------------|
D|-----------5-----------------------------------------|
A|------5----5---5-------------------------------------|
E|-----------------------------------------------------|


Primeira Parte:

(Violão)

      D               C9    G/B   G
E|-------3---2-------3-----3----------------|
B|---3---------3-------3-----3---3----------|
G|-----2---2-----0--------------------------|   (3x)
D|-0----------------------------------------|
A|-----------------3-----2------------------|
E|-----------------------------3------------|

      D
E|-------3---2------------------------------|
B|---3---------3----------------------------|
G|-----2---2-----0--------------------------|
D|-0----------------------------------------|
A|------------------------------------------|
E|------------------------------------------|

      C9              G/B
E|---------0---------------0----------------|
B|---3---3---3---3-----3-----3---3----------|
G|-----0-------0-----0---0-----0------------|
D|------------------------------------------|
A|-3---------------2------------------------|
E|------------------------------------------|

   D
I looked out this morning
      C9         G/B  G
And the sun was gone
 D
Turned on some music
     C9     G/B     G
To start my     day
   D                  C9    G/B      G
I lost myself in a familiar     song
    D
I closed my eyes
        C9         G/B
And I slipped away


Passagem:

(Riff – Guitarras 1 e 2)

E|-----------------------------------------------------|
B|-13~---12~-12b13r12-10~---12b13r12-10h12-10--8-------|
G|-----------------------------------------------------|
D|-----------------------------------------------------|
A|-----------------------------------------------------|
E|-----------------------------------------------------|


Refrão:

      G5        C5       E5               D5
E|------------------------------------------|
B|------------------------------------------|
G|--------------------9--x-x-9--9--x-x-7-7\5|
D|-5--5--5/-10-10-x-x-9--x-x-9--9--x-x-7-7\5|
A|-5--5--5/-10-10-x-x-7--x-x-7--7--x-x-5-5\3|
E|-3--3--3/--8--8-x-x-----------------------|
   ↓  ↓  ↑   ↓  ↓ ↓ ↑ ↓  ↓ ↑ ↓  ↓  ↓ ↑ ↓ ↓

      G5        C5       E5               D5
E|------------------------------------------|
B|------------------------------------------|
G|--------------------9--x-x-9--9--x-x-7-7\-|
D|-5--5--5/-10-10-x-x-9--x-x-9--9--x-x-7-7\-|
A|-5--5--5/-10-10-x-x-7--x-x-7--7--x-x-5-5\-|
E|-3--3--3/--8--8-x-x-----------------------|
   ↓  ↓  ↑   ↓  ↓ ↓ ↑ ↓  ↓ ↑ ↓  ↓  ↓ ↑ ↓ ↓

      G5             C5  E5  D5
It's more than a feeling
        G5                C5
When I hear that old song
           E5     D5
They used to play
    G5           C5  E5  D5
And I begin dreaming
         G5           C5    D#5
'till I see Marianne walk away


Ponte:

Em7           A                 G
    I see my Marianne walkin' away

( G  D/F#  Em7  D9 )


Interlúdio: D  C9  G/B  G

(Violão)

      D               C9    G/B   G
E|-------------------3-----3----------------|
B|---3---3-3---3-------3-----3---3----------|
G|-----2---------0--------------------------|
D|-0---------0------------------------------|
A|-----------------3-----2------------------|
E|-----------------------------3------------|

(Guitarra)

   H.N  .   .   .
E|-----------------------------------------------------|
B|--------------7--------------------------------------|
G|-12-------5---7--------------------------------------|
D|------5----------------------------------------------|
A|------5----------------------------------------------|
E|-----------------------------------------------------|


Segunda Parte:

 D
So many people
      C9           G/B  G
Have come and gone
       D
Their faces fade
        C9       G/B  G
As the years go by
    D
Yet I still recall
   C9       G/B  G
As I wander on
     D
As clear as the sun
     C9           G/B
In the summer sky


Passagem:

(Riff – Guitarra 1)

E|-----------------------------------------------------|
B|-13~---12~-12b13r12-10~---12b13r12-10h12-10--8-------|
G|-----------------------------------------------------|
D|-----------------------------------------------------|
A|-----------------------------------------------------|
E|-----------------------------------------------------|

(Riff – Guitarra 2)

E|-----------------------------------------------------|
B|-8h10~---8~-8h10p8-7~---8h10p8-7h8p7-8~--------------|
G|-----------------------------------------------------|
D|-----------------------------------------------------|
A|-----------------------------------------------------|
E|-----------------------------------------------------|


Refrão:

( G5  C5  E5  D5 )

      G5             C5  E5  D5
It's more than a feeling
        G5                C5
When I hear that old song
           E5     D5
They used to play
    G5           C5  E5  D5
And I begin dreaming
         G5           C5    D#5
'till I see Marianne walk away


Ponte:

Em7           A
    I see my Marianne
          B5  A5  G5  D/F#  A4  A
Walkin' away


Solo: D5  G5  D/F#  A
      D5  G5  D/F#  A
      D5  G5  B5  A
      D5  B5  E5  A
      G5  ( G5  D/F#  E5  D5 )

(Guitarra 1)

E|-----------------------------------------------------|
B|----------7--7h8--7h8p7-5---8b10~-----8--7--5h7p7----|
G|-6--7--9------------------7---------7-------------7--|
D|-----------------------------------------------------|
A|-----------------------------------------------------|
E|-----------------------------------------------------|

E|-----------------------------------------------------|
B|-5h7~-----8--7h8p7-----------------------------------|
G|--------7----------9-7-9b11r9--7-6~------------------|
D|-----------------------------------------------------|
A|-----------------------------------------------------|
E|-----------------------------------------------------|

E|-----------------------------------------------------|
B|-----8-7~--7h8--7h8p7-----10b12~---10--8--7h8p7----7~|
G|----------------------9-7-----------------------9----|
D|-7~--------------------------------------------------|
A|-----------------------------------------------------|
E|-----------------------------------------------------|

E|-----------------------------------------------------|
B|---8--7--5h7p5---5~----------------------------------|
G|-7-------------7------7/11--9h11p9-7--6--7~----------|
D|-----------------------------------------------------|
A|-----------------------------------------------------|
E|-----------------------------------------------------|

E|-----------------------------------------------------|
B|-14h15p14\12-----------------------------------------|
G|-------------14b16~----------------------------------|
D|-----------------------------------------------------|
A|-----------------------------------------------------|
E|-----------------------------------------------------|

(Guitarra 2)

E|-----------------------------------------------------|
B|-10/12--10h12p10-8-7-8b10r8-7-5~\3-------------------|
G|-----------------------------------------------------|
D|-----------------------------------------------------|
A|-----------------------------------------------------|
E|-----------------------------------------------------|

E|-----------------------------------------------------|
B|-12--10~---10h12--10h12p10-8-7-14b15~----------------|
G|-----------------------------------------------------|
D|-----------------------------------------------------|
A|-----------------------------------------------------|
E|-----------------------------------------------------|

E|-----------------------------------------------------|
B|-14--12--10h12p10-8-10~------------------------------|
G|-----------------------------------------------------|
D|-----------------------------------------------------|
A|-----------------------------------------------------|
E|-----------------------------------------------------|

E|-----------------------------------------------------|
B|-8/10--8h10p8-7-5------------------------------------|
G|------------------7~---------------------------------|
D|-----------------------------------------------------|
A|-----------------------------------------------------|
E|-----------------------------------------------------|

E|-----------------------------------------------------|
B|-10h12p10\8--7b8~------------------------------------|
G|-----------------------------------------------------|
D|-----------------------------------------------------|
A|-----------------------------------------------------|
E|-----------------------------------------------------|

( D  C9  G/B  G )


Terceira Parte:

  D
When I'm tired
         C9       G/B  G
And thinking cold
   D
I hide in my music
    C9      G/B  G
Forget the day
      D
And dream of a girl
  C9           G/B  G
I used to know
    D
I closed my eyes
          C9      G/B  C9
And she slipped away

( D  C9  G/B  C9  D  C9 )

      G/B   C9   D  C9  G/B  C9
She slipped    away

( D  C9  G/B )


Passagem: A5  G5  D5

(Riff – Guitarra 1)

E|-----------------------------------------------------|
B|-13~---12~-12b13r12-10~-10h12p10--12b13r12-10h12-10-8|
G|-----------------------------------------------------|
D|-----------------------------------------------------|
A|-----------------------------------------------------|
E|-----------------------------------------------------|

(Riff – Guitarra 2)

E|-----------------------------------------------------|
B|-8h10~---8~-8h10p8-7~--7h8p7--8h10p8-7h8p7-8~--------|
G|-----------------------------------------------------|
D|-----------------------------------------------------|
A|-----------------------------------------------------|
E|-----------------------------------------------------|


Refrão:

G5  C5  E5  D5
G5  C5  E5  D5

      G5             C5  E5  D5
It's more than a feeling
        G5                C5
When I hear that old song
           E5     D5
They used to play
    G5           C5  E5  D5
And I begin dreaming
         G5           C5    E5  D5
'till I see Marianne walk away


Final:

      G5        C5
E|------------------------------------------|
B|------------------------------------------|
G|------------------------------------------|
D|-5--5--5/-10-10---------------------------|
A|-5--5--5/-10-10---------------------------|
E|-3--3--3/--8--8---------------------------|
   ↓  ↓  ↑   ↓  ↓

          E5               D5
E|------------------------------------------|
B|------------------------------------------|
G|-----9--x-x-9--9--x-x-7--x-x-7------------|
D|-x-x-9--x-x-9--9--x-x-7--x-x-7------------|
A|-x-x-7--x-x-7--7--x-x-5--x-x-5------------|
E|-x-x--------------------------------------|
   ↓ ↑ ↓  ↓ ↑ ↓  ↓  ↓ ↑ ↓  ↓ ↑ ↓

      G5        C5
E|------------------------------------------|
B|------------------------------------------|
G|------------------------------------------|
D|-5--5--5/-10-10---------------------------|
A|-5--5--5/-10-10---------------------------|
E|-3--3--3/--8--8---------------------------|
   ↓  ↓  ↑   ↓  ↓

          E5               D5
E|------------------------------------------|
B|------------------------------------------|
G|-----9--x-x-9--9--x-x-7-7\5---------------|
D|-x-x-9--x-x-9--9--x-x-7-7\5---------------|
A|-x-x-7--x-x-7--7--x-x-5-5\3---------------|
E|-x-x--------------------------------------|
   ↓ ↑ ↓  ↓ ↑ ↓  ↓  ↓ ↑ ↓ ↓

      G5        C5
E|------------------------------------------|
B|------------------------------------------|
G|------------------------------------------|
D|-5--5--5/-10-10---------------------------|
A|-5--5--5/-10-10---------------------------|
E|-3--3--3/--8--8---------------------------|
   ↓  ↓  ↑   ↓  ↓

          E5               D5
E|------------------------------------------|
B|------------------------------------------|
G|-----9--x-x-9--9--x-x-7--x-x-5------------|
D|-x-x-9--x-x-9--9--x-x-7--x-x-5------------|
A|-x-x-7--x-x-7--7--x-x-5--x-x-3------------|
E|-x-x--------------------------------------|
   ↓ ↑ ↓  ↓ ↑ ↓  ↓  ↓ ↑ ↓  ↓ ↑ ↓

      G5        C5
E|------------------------------------------|
B|------------------------------------------|
G|------------------------------------------|
D|-5--5--5/-10-10---------------------------|
A|-5--5--5/-10-10---------------------------|
E|-3--3--3/--8--8---------------------------|
   ↓  ↓  ↑   ↓  ↓

          E5               D5
E|------------------------------------------|
B|------------------------------------------|
G|-----9--x-x-9--9--x-x-7-7\----------------|
D|-x-x-9--x-x-9--9--x-x-7-7\----------------|
A|-x-x-7--x-x-7--7--x-x-5-5\----------------|
E|-x-x--------------------------------------|
   ↓ ↑ ↓  ↓ ↑ ↓  ↓  ↓ ↑ ↓ ↓
Acordes para:

    0 comentarios

      mostrar más comentarios

      ¿Conseguiste tocar?

      38tocaron2aún no

      ¡Graba un vídeo tocando More Than A Feeling y envianoslo!

      00:00 / 00:00
      outros vídeos desta música
      repetirqualidadeAutomático
      Outro vídeos desta música
        00:00 / 00:00
        OK