Cifra Club

On My Way

Boyce Avenue

Tablatura: Principal
reproducciones 666
Tono: D
OBS: CASO QUEIRA TOCAR NO TOM DA VERSÃO TOCADA NO VIOLÃO, APENAS AFINE 1/2 TOM ABAIXO.

Intro D A/D G Bm A

D                        A/D                          G
I wasn't there the moment You first learned to breathe
           Bm                A
But I'm on my way, on my way
D                      A/D                      G
I wasn't there the moment You got off your knees
         Bm                 A
But I'm on my way, on my way

REFRÃO
G    D                                Bm                                 A
Lay down And come alive in all you've found, All you're meant to be
G    D                          Bm
For now  Wait until the morning light
                    A                         G     (quick walk) Bm - A
Close our eyes to see Just close your eyes to see

D                        A/D                                         G
A tear must have formed in my eye When you had your first kiss
        Bm                A
But I'm on my way, on my way
D                    D/C#                         G
So leave a space deep inside for everything I'll miss
             Bm                A
Cause I'm on my way, on my way

REFRÃO
G    D                                Bm                                 A
Lay down And come alive in all you've found, All you're meant to be
G    D                          Bm
For now  Wait until the morning light
                    A                         G     (quick walk) Bm - A
Close our eyes to see Just close your eyes to see

PONTE
G                        D                Bm          A
And when you feel no saving grace Well I'm on my way, on my way
G                                D            Bm          A
And when you're bound to second place Well I'm on my way, on my way
G                               D             Bm       A
So don't believe it's all in vain Cause I'm on my way, on my way
G                        D                Bm                A     G   Bm - A
The light at the end is worth the pain
            Bm           A             A     G   Bm - A
Cause I'm on my way, I'm on my way   Ohhhhh

SOLO:
E|--------------------------------------------------------------------------------------------   (2x)
B|-2/10-10-10-10-10-10-10-10-10-12-12-12----------------5-5-7-7-7-7-7-10-10-5-5-5-3-3-3-2-2---
G|---------------------------------------11-11-11-11-11---------------------------------------
D|--------------------------------------------------------------------------------------------
A|--------------------------------------------------------------------------------------------
E|--------------------------------------------------------------------------------------------

-2/10-10-10-10-10-10-10-9-9-7-7-5-5--------------------------------------|
------------------------------------7-7-5-5-3-3--------------------------|
-------------------------------------------------------------------------|
-------------------------------------------------------------------------|
-------------------------------------------------------------------------|
-------------------------------------------------------------------------|

Solo base: G D Bm A G D 
(SUAVE: Bm - A - G - Bm - A - D)

FINAL:
D                   A/D                       G                Bm    A
I'll be there the moment You come out in white  Cause I'm on my way, on my
  D
way
Acordes para:
    Colaboración y revision:

    0 comentarios

      mostrar más comentarios

      ¿Conseguiste tocar?

      7tocaron0aún no

      ¡Graba un vídeo tocando On My Way y envianoslo!

      00:00 / 00:00
      outros vídeos desta música
      repetirqualidadeautomática
      Outro vídeos desta música
        00:00 / 00:00
        automática
        OK