Cifra Club

Noah's Arc

Braddigan

Cifrado: Principal (guitarra y guitarra eléctrica)
tono: A
From the album "Watchfires" (2005)

Tabbed for acoustic and lead guitar by Jake Buckley (bucklj2@rpi.edu)


Acoustic (tune high E string to D)

Verse 1
(0:11)
D|-------0-----------0-----------0-----------0-----|
B|-----3---3-------3---3-------3---3-------3---3---|
G|---2-------2---2-------2---0-------0---0-------0-|
D|-0-----------4-----------2-----------------------|
A|-------------------------------------3-----------|
E|-------------------------------------------------|

D|-------0-----------0-----------0-----------0-----|
B|-----3---3-------3---3-------3---3-------3---3---|
G|---2-------2---2-------2---0-------0---0-------0-|
D|-0-----------4-----------2-----------2-----------|
A|-------------------------------------------------|
E|-------------------------------------------------|

D|-------0-----------0-----------0-----------0-----|
B|-----3---3-------3---3-------3---3-------3---3---|
G|---2-------2---2-------2---0-------0---0-------0-|
D|-0-----------4-----------2-----------------------|
A|-------------------------------------3-----------|
E|-------------------------------------------------|

                                     |1------------|2-----------|
D|-------0-----------0-----------0----|-------0-----|-------0----|
B|-----3-----------3---3-------3---3--|-----3---3---|-----3---3--|
G|---0-----------0-------0---2-------2|---2-------2-|---2-------2|
D|-------------------------0----------|-0-----------|------------|
A|-2------2h3p2-----------------------|-------------|-0----------|
E|-------------1----------------------|-------------|------------|

Interlude 1
(0:48)
D|-------0-----------0-----------0-----------0-----|
B|-----3---3-------3---3-------3---3-------3---3---|
G|---0-------0---0-------0---0-------0---0-------0-|
D|-------------------------------------------------| x2
A|-3-----------3-----------2-----------2-----------|
E|-------------------------------------------------|

D|-------0-----------0-----------0-----------0-----|
B|-----3---3-------3---3-------3---3-------3---3---|
G|---0-------0---0-------0---0-------0---0-------0-|
D|-------------------------------------------------|
A|-3-----------3-----------2-----------------------|
E|-------------------------------------1-----------|

D|-------0-----------0-----------0-----------0-----|
B|-----3---3-------3---3-------3---3-------3---3---|
G|---2-------2---2-------2---2-------2---2-------2-|
D|-0-----------0-----------0-----------0-----------|
A|-------------------------------------------------|
E|-------------------------------------------------|

Verse 2
(1:10)
D|-------0-----------0-----------0-----------0-----|
B|-----3---3-------3---3-------3---3-------3---3---|
G|---2-------2---2-------2---0-------0---0-------0-|
D|-0-----------4-----------2-----------------------|
A|-------------------------------------3-----------|
E|-------------------------------------------------|

D|-------0-----------0-----------0-----------0-----|
B|-----3---3-------3---3-------3---3-------3---3---|
G|---2-------2---2-------2---0-------0---0-------0-|
D|-0-----------4-----------2-----------2-----------|
A|-------------------------------------------------|
E|-------------------------------------------------|

D|-------0-----------0-----------0-----------0-----|
B|-----3---3-------3---3-------3---3-------3---3---|
G|---2-------2---2-------2---0-------0---0-------0-|
D|-0-----------4-----------2-----------------------|
A|-------------------------------------3-----------|
E|-------------------------------------------------|

D|-------0-----------0-----------0-----------0-----|
B|-----3-----------3---3-------3---3-------3---3---|
G|---0-----------0-------0---2-------2---2-------2-|
D|-------------------------0-----------------------|
A|-2------2h3p2------------------------0-----------|
E|-------------1-----------------------------------|

Interlude 2
(1:30)
D|-------0-----------0-----------0-----------0-----|
B|-----3---3-------3---3-------3---3-------3---3---|
G|---0-------0---0-------0---0-------0---0-------0-|
D|-------------------------------------------------|
A|-3-----------3-----------2-----------2-----------|
E|-------------------------------------------------|

D|-------0-----------0-----------0-----------0-----|
B|-----3---3-------3---3-------3---3-------3---3---|
G|---0-------0---0-------0---0-------0---0-------0-|
D|-------------------------------------------------|
A|-3-----------3-----------2-----------0-----------|
E|-------------------------------------------------|

D|-------0-----------0-----------0-----------0-----|
B|-----3---3-------3---3-------3---3-------3---3---|
G|---0-------0---0-------0---0-------0---0-------0-|
D|-------------------------------------------------|
A|-3-----------3-----------2-----------2-----------|
E|-------------------------------------------------|

D|-------0-----------0-----------0-----------0-----|
B|-----3---3-------3---3-------3---3-------3---3---|
G|---0-------0---0-------0---2-------2---2-------2-|
D|-------------------------0-----------0-----------|
A|-3-----------------------------------------------|
E|-------------1-----------------------------------|

Verse 3
(1:50)
D|-------0-----------0-----------0-----------0-----|
B|-----3---3-------3---3-------3---3-------3---3---|
G|---2-------2---2-------2---0-------0---0-------0-|
D|-0-----------4-----------2-----------------------|
A|-------------------------------------3-----------|
E|-------------------------------------------------|

D|-------0-----------0-----------0-----------0-----|
B|-----3---3-------3---3-------3---3-------3---3---|
G|---2-------2---2-------2---0-------0---0-------0-|
D|-0-----------4-----------2-----------2-----------|
A|-------------------------------------------------|
E|-------------------------------------------------|

D|-------0-----------0-----------0-----------0-----|
B|-----3---3-------3---3-------3---3-------3---3---|
G|---2-------2---2-------2---0-------0---0-------0-|
D|-0-----------4-----------2-----------------------|
A|-------------------------------------3-----------|
E|-------------------------------------------------|

                                     |1------------|2-----------|
D|-------0-----------0-----------0----|-------0-----|-------0----|
B|-----3-----------3---3-------3---3--|-----3---3---|-----3---3--|
G|---0-----------0-------0---2-------2|---2-------2-|---2-------2|
D|-------------------------0----------|-0-----------|------------|
A|-2------2h3p2-----------------------|-------------|-0----------|
E|-------------1----------------------|-------------|------------|

Interlude 3
(2:29)
D|-------0-----------0-----------0-----------0-----|
B|-----3---3-------3---3-------3---3-------3---3---|
G|---0-------0---0-------0---0-------0---0-------0-|
D|-------------------------------------------------| x2
A|-3-----------3-----------2-----------2-----------|
E|-------------------------------------------------|

D|-------0-----------0-----------0-----------0-----|
B|-----3---3-------3---3-------3---3-------3---3---|
G|---0-------0---0-------0---0-------0---0-------0-|
D|-------------------------------------------------|
A|-3-----------3-----------2-----------------------|
E|-------------------------------------1-----------|

D|-------0-----------0-----------0-----------0-----|
B|-----3---3-------3---3-------3---3-------3---3---|
G|---2-------2---2-------2---2-------2---2-------2-|
D|-0-----------0-----------0-----------0-----------|
A|-------------------------------------------------|
E|-------------------------------------------------|

Verse 4
(2:49)
D|-------0-----------0-----------0-----------0-----|
B|-----3---3-------3---3-------3---3-------3---3---|
G|---2-------2---2-------2---0-------0---0-------0-|
D|-0-----------4-----------2-----------------------|
A|-------------------------------------3-----------|
E|-------------------------------------------------|

D|-------0-----------0-----------0-----------0-----|
B|-----3---3-------3---3-------3---3-------3---3---|
G|---2-------2---2-------2---0-------0---0-------0-|
D|-0-----------4-----------2-----------2-----------|
A|-------------------------------------------------|
E|-------------------------------------------------|

D|-------0-----------0-----------0-----------0-----|
B|-----3---3-------3---3-------3---3-------3---3---|
G|---2-------2---2-------2---0-------0---0-------0-|
D|-0-----------4-----------2-----------------------|
A|-------------------------------------3-----------|
E|-------------------------------------------------|

D|-------0-----------0-----------0-----------0-----|
B|-----3-----------3---3-------3---3-------3---3---|
G|---0-----------0-------0---2-------2---2-------2-|
D|-------------------------0-----------------------|
A|-2------2h3p2------------------------0-----------|
E|-------------1-----------------------------------|

Interlude 4
(3:09)
D|-------0-----------0-----------0-----------0-----|
B|-----3---3-------3---3-------3---3-------3---3---|
G|---0-------0---0-------0---0-------0---0-------0-|
D|-------------------------------------------------|
A|-3-----------3-----------2-----------2-----------|
E|-------------------------------------------------|

D|-------0-----------0-----------0-----------0-----|
B|-----3---3-------3---3-------3---3-------3---3---|
G|---0-------0---0-------0---0-------0---0-------0-|
D|-------------------------------------------------|
A|-3-----------3-----------2-----------0-----------|
E|-------------------------------------------------|

D|-------0-----------0-----------0-----------0-----|
B|-----3---3-------3---3-------3---3-------3---3---|
G|---0-------0---0-------0---0-------0---0-------0-|
D|-------------------------------------------------|
A|-3-----------3-----------2-----------2-----------|
E|-------------------------------------------------|

D|-------0-----------0-----------0-----------0-----|
B|-----3---3-------3---3-------3---3-------3---3---|
G|---0-------0---0-------0---2-------2---2-------2-|
D|-------------------------0-----------0-----------|
A|-3-----------------------------------------------|
E|-------------1-----------------------------------|

Ending
(3:29)
D|-------0-----------0-------|
B|-----3---3-------3---3-----|
G|---2-------2---2-------2---|
D|-0-----------0-----------0-|
A|---------------------------|
E|---------------------------|


Lead (standard tuning)

Verse 1
(0:10)
E|-------------------------------------------------|
B|-------------------------------------------------|
G|-------------------------------------------------|
D|---------------------------------------------4-5-|
A|-------------------------------------------------|
E|-------------------------------------------------|

E|-------------------------------------------------|
B|-------------------------------------------------|
G|------------7-----------5-------4h5p4------------|
D|-7------------------------------------5------4-5-|
A|-------------------------------------------------|
E|-------------------------------------------------|

E|-------------------------------------------------|
B|---------------------------------------------7-8-|
G|------------7-----------5------------------------|
D|-5/7---------------------------------------------|
A|-------------------------------------------------|
E|-------------------------------------------------|

E|------------10----------10/12--------------------|
B|-8/10--------------------------------------------|
G|--------------------------------4h5p4------------|
D|--------------------------------------5----------|
A|-------------------------------------------------|
E|-------------------------------------------------|

E|-------------------------------------------------|
B|---------------------------------------------7-8-|
G|-------------------------------------------------|
D|-------------------------------------------------|
A|-------------------------------------------------|
E|-------------------------------------------------|

E|------------10-----------------------------------|
B|-8/10--------------------------------------------|
G|------------------------5-------4h5p4------------|
D|--------------------------------------5------4-5-|
A|-------------------------------------------------|
E|-------------------------------------------------|

E|-------------------------------------------------|
B|---------------------------------------------7-8-|
G|------------7-----------5------------------------|
D|-5/7---------------------------------------------|
A|-------------------------------------------------|
E|-------------------------------------------------|

E|------------10----------10/12--------------------|
B|-8/10--------------------------------------------|
G|--------------------------------4h5p4------------|
D|--------------------------------------5----------|
A|-------------------------------------------------|
E|-------------------------------------------------|

E|-------------------------------------------------|
B|-------------------------------------------------|
G|-------------------------------------------------|
D|-------------------------------------------------|
A|-------------------------------------------------|
E|-------------------------------------------------|

Interlude 1
(0:48)
E|-------------------------------------------------|
B|-------------------------------------------------|
G|-7/9-------------------9\7-----------------------|
D|-------------------------------------------------|
A|-------------------------------------------------|
E|-------------------------------------------------|

E|-------------------------------------------------|
B|---------7h8h10----------------------------------|
G|-7/9-------------------9\7-----------------------|
D|-------------------------------------------------|
A|-------------------------------------------------|
E|-------------------------------------------------|

E|-----------------------------------------12------|
B|--------------------------------------------10---|
G|-7/9-------------------9\7-----------------------|
D|-------------------------------------------------|
A|-------------------------------------------------|
E|-------------------------------------------------|

E|-------------------------------------------------|
B|---------------------------------------------7-8-|
G|-----------------------5/7-----------------------|
D|-------------------------------------------------|
A|-------------------------------------------------|
E|-------------------------------------------------|

Verse 2
(1:10)
E|------------10----------8-------7h8p7------------|
B|-8/10---------------------------------8------7-8-|
G|-------------------------------------------------|
D|-------------------------------------------------|
A|-------------------------------------------------|
E|-------------------------------------------------|

E|------------10----------10/12--------------------|
B|-8/10----------------------------------------7-8-|
G|-------------------------------------------------|
D|-------------------------------------------------|
A|-------------------------------------------------|
E|-------------------------------------------------|

E|------------10----------8-------7h8p7------------|
B|-8/10---------------------------------8----------|
G|-------------------------------------------------|
D|-------------------------------------------------|
A|-------------------------------------------------|
E|-------------------------------------------------|

E|-------------------------------------------------|
B|-7h8p7-------------------------------------------|
G|-------9p7------7/9b----7------------------------|
D|-------------------------------------------------|
A|-------------------------------------------------|
E|-------------------------------------------------|

Interlude 2
(1:30)
E|-------------------------------------------------|
B|-------------------------------------------------|
G|-7/9-------------------9\7-----------------------| x3
D|-------------------------------------------------|
A|-------------------------------------------------|
E|-------------------------------------------------|

E|-------------------------------------------------|
B|---------------------------------------------7-8-|
G|-9b----------------------------------------------|
D|-------------------------------------------------|
A|-------------------------------------------------|
E|-------------------------------------------------|

Verse 3
(1:50)
E|------------10----------8-------7h8p7------------|
B|-8/10---------------------------------8------7-8-|
G|-------------------------------------------------|
D|-------------------------------------------------|
A|-------------------------------------------------|
E|-------------------------------------------------|

E|------------10----------8------------------------|
B|-8/10----------------------------------------7-8-|
G|-------------------------------------------------|
D|-------------------------------------------------|
A|-------------------------------------------------|
E|-------------------------------------------------|

E|------------10----------8-------7h8p7------------|
B|-8/10---------------------------------8----------|
G|-------------------------------------------------|
D|-------------------------------------------------|
A|-------------------------------------------------|
E|-------------------------------------------------|

E|-------------------------------------------------|
B|-7h8p7---------------------------------------7-8-|
G|-------9---7------7----10----------7------7------|
D|--------------10---------------------10----------|
A|-------------------------------------------------|
E|-------------------------------------------------|

E|------------10----------8-------7h8p7------------|
B|-8/10---------------------------------8------7-8-|
G|-------------------------------------------------|
D|-------------------------------------------------|
A|-------------------------------------------------|
E|-------------------------------------------------|

E|------------10----------10/12--------------------|
B|-8/10----------------------------------------7-8-|
G|-------------------------------------------------|
D|-------------------------------------------------|
A|-------------------------------------------------|
E|-------------------------------------------------|

E|------------10----------8-------7h8p7------------|
B|-8/10---------------------------------8----------|
G|-------------------------------------------------|
D|-------------------------------------------------|
A|-------------------------------------------------|
E|-------------------------------------------------|

E|-------------------------------------------------|
B|-7h8p7-------------------------------------------|
G|-------9p7------7/9b----7------------------------|
D|-------------------------------------------------|
A|-------------------------------------------------|
E|-------------------------------------------------|

Interlude 3
(2:29)
E|-------------------------------------------------|
B|-------------------------------------------------|
G|-7/9-------------------9\7-----------------------| x3
D|-------------------------------------------------|
A|-------------------------------------------------|
E|-------------------------------------------------|

E|-------------------------------------------------|
B|-------------------------------------------------|
G|-------------------------------------------------|
D|---------------------------------------------4-5-|
A|-------------------------------------------------|
E|-------------------------------------------------|

Verse 4
(2:49)

E|-------------------------------------------------|
B|-------------------------------------------------|
G|------------7-----------5-------4h5p4------------|
D|-5/7----------------------------------5------4-5-|
A|-------------------------------------------------|
E|-------------------------------------------------|

E|-------------------------------------------------|
B|-------------------------------------------------|
G|------------7-----------5------------------------|
D|-5/7-----------------------------------------4-5-|
A|-------------------------------------------------|
E|-------------------------------------------------|

E|-------------------------------------------------|
B|----------------------------------------------5h6|
G|------------7-----------5-------4h5p4------------|
D|-5/7----------------------------------5----------|
A|-------------------------------------------------|
E|-------------------------------------------------|

E|-------------------------------------------------|
Bh7------------------7p6p5------------------------|
G|--------------------------------7----------------|
D|-------------------------------------------------|
A|-------------------------------------------------|
E|-------------------------------------------------|

Interlude 4
(3:09)
E|-------------------------------------------------|
B|-------------------------------------------------|
G|-7/9-------------------9\7-----------------------|
D|-------------------------------------------------|
A|-------------------------------------------------|
E|-------------------------------------------------|

E|-------------------------------------------------|
B|--------------------------------8----------------|
G|-7/9-------------------9\7-----------------------|
D|-------------------------------------------------|
A|-------------------------------------------------|
E|-------------------------------------------------|

E|-------------------------------------------------|
B|-------------------------------------------------|
G|-7/9-------------------9\7-----------------------|
D|-------------------------------------------------|
A|-------------------------------------------------|
E|-------------------------------------------------|

E|-------------------------------------------------|
B|-------------------------------------------------|
G|-7/9----------------7h9b----7--------------------|
D|-------------------------------------------------|
A|-------------------------------------------------|
E|-------------------------------------------------|

Ending
(3:29)
E|-------------------------------------------------|
B|-------------------------------------------------|
G|-7*----------------------------------------------| x2
D|-7*----------------------------------------------|
A|-------------------------------------------------|
E|-------------------------------------------------|

Legend:

| /  slide up
| \  slide down
| h  hammer-on
| p  pull-off
| *  harmonic
00:00 / 00:00
Otros videos de esta canción
Repetir
Otros videos de esta canción
Composición de Braddigan
Colaboración y revisión:
  • Lucas Montenegro
6 vistas
    • ½ Tono
    • A
    • Bb
    • B
    • C
    • Db
    • D
    • Eb
    • E
    • F
    • F#
    • G
    • Ab
  • Agregar a la lista

    0 comentarios

    Ver todos los comentarios

    ¿Lograste tocar?

    0 Tocaron 0 Aún no

    ¡Graba un video tocando Noah's Arc y envíanoslo!

    00:00 / 00:00
    OK