Cifra Club

Queem Of The Westside

Brett Dennen

Cifrado: Principal (guitarra y guitarra eléctrica)
Selo Cifra Club: esta cifra foi revisada para atender aos critérios oficiais da nossa Equipe de Qualidade.
tono: A
E|--5--5--3--7--5--3--7--7--5-----------7--5--5--5--3------------------------|
B|--5--7--3--7--5--3--7--7--5-----------7--5--5--5--3------------------------|
G|--7--5--4--8--6--4--8--9--6-----------x--6--7--6--4------------------------|
D|--7--7--5--9--7--5--9--9--7-----------x--7--7--7--5------------------------|
A|--5--5--x--x--x--x--x--7--x-----------x--x--5--x--x--x--x--2---------------|
E|--x--x--3--9--5--3--9--x--5--5--6--7--7--5--x--5--3--3--2--0---------------|

E|----7--5--5--3--7--5-|
B|----7--5--5--3--7--5-|
G|----8--6--7--4--8--6-|
D|----9--7--7--5--9--7-|
A|----x--x--5--x--x--x-|
E|----7--5--x--3--7--5-|

That is the first verse. The second verse is the same as the first.

After that the "She rocks me to my soul" part just repeats like this:

E|5--3--7--5-|
B|5--3--7--5-|
G|7--4--8--6-|
D|7--5--9--7-|
A|5--x--x--x-|
E|x--3--7--5-|

And i could only figure out one of the hammer-on parts

E|--3----------------7-|
B|--3----------------7-|
G|--4-----7--7h9p7---8-|
D|--5--7h9-9------9--9-|
A|--x----------------x-|
E|--3----------------7-|
Otros videos de esta canción
    3 exhibiciones
      • ½ Tono
      • A
      • Bb
      • B
      • C
      • Db
      • D
      • Eb
      • E
      • F
      • F#
      • G
      • Ab
    • Agregar a la lista

    Afinação da cifra

    Afinador online

      Ops (: Contenido disponible solo en portugués.
      OK