Cifra Club

Black Blue

Bring Me The Horizon

Cifrado: Principal (guitarra y guitarra eléctrica)
tono: E
Guitar 1
       E  E  E  E  E  E  E  E     E  E  E  E  E  E  E  E
C#||--------------------------|--------------------------|
G#||--------------------------|--------------------------|
E ||--------------------------|--------------------------|
B ||--------------------------|--------------------------|
F#||--------5-----6-----3--5--|--------------------------|
B ||--0--0-----0-----0--------|--0--0--0--0--0--0--0--0--|


                                   |---3--|        |--3--|   
   E  E  E  E  E  E  E  E     E  E  E   E  E  E  E  E  E  E
--------------------------|---------------------------------|
--------------------------|---------------------------------|
--------------------------|--------7--10--7--------6--9--6--|
--------------------------|---------------------------------|
--------5-----6-----3--5--|---------------------------------|
--0--0-----0-----0--------|--0--0------------0--0-----------|

   E  E  E  E  E  E  E  E     E  E  E  E  E  E  E  E
--------------------------|--------------------------|
--------------------------|--------------------------|
--------------------------|--------------------------|
--------------------------|--------------------------|
--------5-----6-----3--5--|--------------------------|
--0--0-----0-----0--------|--0--0--0--0--0--0--0--0--|

                                   |---3--|        |--3--|   
   E  E  E  E  E  E  E  E     E  E  E   E  E  E  E  E  E  E
--------------------------|---------------------------------|
--------------------------|---------------------------------|
--------------------------|--------7--10--7--------6--9--6--|
--------------------------|---------------------------------|
--------5-----6-----3--5--|---------------------------------|
--0--0-----0-----0--------|--0--0------------0--0-----------|

   E   E  E   E   E   E   E   E     E  E  E  E  E  E  E  E
------------------------12--15--|--------------------------|
----------------11--14----------|--------------------------|
---------9--12------------------|--------------------------|
--8--11-------------------------|--------------------------|
--------------------------------|--------5-----6-----3--5--|
--------------------------------|--0--0-----0-----0--------|

   E  E  E  E  E  E  E  E     E  E  E  E  E  E  E  E
--------------------------|--------------------------|
--------------------------|--------------------------|
--------------------------|--------------------------|
--------------------------|--------------------------|
--------------------------|--------5-----6-----3--5--|
--0--0--0--0--0--0--0--0--|--0--0-----0-----0--------|

        |---3--|        |--3--|                              
   E  E  E   E  E  E  E  E  E  E     E  E  E  E  E  E  E  E
---------------------------------|--------------------------|
---------------------------------|--------------------------|
--------7--10--7--------6--9--6--|--------------------------|
---------------------------------|--------------------------|
---------------------------------|--------5-----6-----3--5--|
--0--0------------0--0-----------|--0--0-----0-----0--------|

   E  E  E  E  E  E  E  E     E  E  E  E  E  E  E  E
--------------------------|--------------------------|
--------------------------|--------------------------|
--------------------------|--------------------------|
--------------------------|--------------------------|
--------------------------|--------5-----6-----3--5--|
--0--0--0--0--0--0--0--0--|--0--0-----0-----0--------|

        |---3--|        |--3--|                              
   E  E  E   E  E  E  E  E  E  E     E  E  E  E  E  E  E  E
---------------------------------|--------------------------|
---------------------------------|--------------------------|
--------7--10--7--------6--9--6--|--------------------------|
---------------------------------|--------------------------|
---------------------------------|--------5-----6-----3--5--|
--0--0------------0--0-----------|--0--0-----0-----0--------|

   E  E  E  E  E  E  E  E     E  E  E  E  E  E  E  E
--------------------------|--------------------------|
--------------------------|--------------------------|
--------------------------|--------------------------|
--------------------------|--------------------------|
--------------------------|--------5-----6-----3--5--|
--0--0--0--0--0--0--0--0--|--0--0-----0-----0--------|

        |---3--|        |--3--|                              
   E  E  E   E  E  E  E  E  E  E     E  E  E  E  E  E  E  E
---------------------------------|--------------------------|
---------------------------------|--------------------------|
--------7--10--7--------6--9--6--|--------------------------|
---------------------------------|--------------------------|
---------------------------------|--------5-----6-----3--5--|
--0--0------------0--0-----------|--0--0-----0-----0--------|

   E  E  E  E  E  E  E  E     E  E  E  E  E  E  E  E
--------------------------|--------------------------|
--------------------------|--------------------------|
--------------------------|--------------------------|
--------------------------|--------------------------|
--------------------------|--------5-----6-----3--5--|
--0--0--0--0--0--0--0--0--|--0--0-----0-----0--------|

        |---3--|        |--3--|                                    
   E  E  E   E  E  E  E  E  E  E     E   E  E   E   E   E   E   E
---------------------------------|------------------------12--15--|
---------------------------------|----------------11--14----------|
--------7--10--7--------6--9--6--|---------9--12------------------|
---------------------------------|--8--11-------------------------|
---------------------------------|--------------------------------|
--0--0------------0--0-----------|--------------------------------|

   E  E  E  E  E  E  E  E     E  E  E  E  E  E  E  E
--------------------------|--------------------------|
--------------------------|--------------------------|
--------------------------|--------------------------|
--------------------------|--------------------------|
--------5--8--------5--8--|--------5--8--------5--8--|
--0--0--------0--0--------|--0--0--------0--0--------|

   E  E  E   E  E  E  E   E     E  E  E  E  E  E  E  E
----------------------------|--------------------------|
----------------------------|--------------------------|
----------------------------|--------------------------|
----------------------------|--------------------------|
--------7--10--------7--10--|--------4--7--------4--7--|
--0--0---------0--0---------|--0--0--------0--0--------|

   E  E  E  E  E  E  E  E     E  E  E  E  E  E  E  E
--------------------------|--------------------------|
--------------------------|--------------------------|
--------------------------|--------------------------|
--------------------------|--------------------------|
--------5--8--------5--8--|--------5--8--------5--8--|
--0--0--------0--0--------|--0--0--------0--0--------|

   E  E  E   E  E  E  E   E     E  E  E  E  E  E  E  E
----------------------------|--------------------------|
----------------------------|--------------------------|
----------------------------|--------------------------|
----------------------------|--------------------------|
--------7--10--------7--10--|--------4--7--------4--7--|
--0--0---------0--0---------|--0--0--------0--0--------|

   E  E  E  E  E  E  E  E     E  E  E  E  E  E  E  E
--------------------------|--------------------------|
--------------------------|--------------------------|
--------------------------|--------------------------|
--------------------------|--------------------------|
--------5--8--------5--8--|--------5--8--------5--8--|
--0--0--------0--0--------|--0--0--------0--0--------|

   E  E  E   E  E  E  E   E     E  E  E  E  E  E  E  E
----------------------------|--------------------------|
----------------------------|--------------------------|
----------------------------|--------------------------|
----------------------------|--------------------------|
--------7--10--------7--10--|--------4--7--------4--7--|
--0--0---------0--0---------|--0--0--------0--0--------|

   E  E  E  E  E  E  E  E     E  E  E  E  E  E  E  E
--------------------------|--------------------------|
--------------------------|--------------------------|
--------------------------|--------------------------|
--------------------------|--------------------------|
--------5--8--------5--8--|--------5--8--------5--8--|
--0--0--------0--0--------|--0--0--------0--0--------|

   E  E  E   E  E  E  E   E     E  E  E  E  E  E  E  E
----------------------------|--------------------------|
----------------------------|--------------------------|
----------------------------|--------------------------|
----------------------------|--------------------------|
--------7--10--------7--10--|--------4--7--------4--7--|
--0--0---------0--0---------|--0--0--------0--0--------|

  S S S S S S S S S S S S S S S S    S S S S S S S S S S S S S S S S  
----------------------------------|----------------------------------|
----------------------------------|----------------------------------|
----------------------------------|----------------------------------|
--------------------------8-8-8-8-|--7-7-7-7-5-5-5-5-----------------|
----------5-5-5-5-8-8-8-8---------|------------------8-8-8-8-7-7-7-7-|
--0-0-0-0-------------------------|----------------------------------|

          |--3--|          |--3--|             |--3--|          |--3--|   
   S S S S E  E  E  S S S S E  E  E     S S S S E  E  E  S S S S E  E  E
------------------------------------|------------------------------------|
------------------------------------|------------------------------------|
------------------------------------|------------------------------------|
------------------------------------|------------------------------------|
----------5--7--5----------5--7--5--|----------5--8--5----------4--7--4--|
--8-8-8-8----------8-8-8-8----------|--5-5-5-5----------7-7-7-7----------|

  S S S S S S S S S S S S S S S S    S S S S S S S S S S S S S S S S  
----------------------------------|----------------------------------|
----------------------------------|----------------------------------|
----------------------------------|----------------------------------|
--------------------------8-8-8-8-|--7-7-7-7-5-5-5-5-----------------|
----------5-5-5-5-8-8-8-8---------|------------------8-8-8-8-7-7-7-7-|
--0-0-0-0-------------------------|----------------------------------|

          |--3--|          |--3--|             |--3--|          |--3--|   
   S S S S E  E  E  S S S S E  E  E     S S S S E  E  E  S S S S E  E  E
------------------------------------|------------------------------------|
------------------------------------|------------------------------------|
------------------------------------|------------------------------------|
------------------------------------|------------------------------------|
----------5--7--5----------5--7--5--|----------5--8--5----------4--7--4--|
--8-8-8-8----------8-8-8-8----------|--5-5-5-5----------7-7-7-7----------|

  S S S S S S S S S S S S S S S S    S S S S S S S S S S S S S S S S  
----------------------------------|----------------------------------|
----------------------------------|----------------------------------|
----------------------------------|----------------------------------|
--------------------------8-8-8-8-|--7-7-7-7-5-5-5-5-----------------|
----------5-5-5-5-8-8-8-8---------|------------------8-8-8-8-7-7-7-7-|
--0-0-0-0-------------------------|----------------------------------|

  S S S S S S S S S S S S S S S S    S S S S S S S S S S S S S S S S  
----------------------------------|----------------------------------|
----------------------------------|----------------------------------|
----------------------------------|----------------------------------|
----------------------------------|----------------------------------|
----------5-5-5-5-7-7-7-7-8-8-8-8-|----------5-5-5-5---------4-4-4-4-|
--8-8-8-8-------------------------|--5-5-5-5---------7-7-7-7---------|

  S S S S S S S S S S S S S S S S    S S S S S S S S S S S S S S S S  
----------------------------------|----------------------------------|
----------------------------------|----------------------------------|
----------------------------------|----------------------------------|
--------------------------8-8-8-8-|--7-7-7-7-5-5-5-5-----------------|
----------5-5-5-5-8-8-8-8---------|------------------8-8-8-8-7-7-7-7-|
--0-0-0-0-------------------------|----------------------------------|

  S S S S S S S S S S S S S S S S    S S S S S S S S S S S S S S S S  
----------------------------------|----------------------------------|
----------------------------------|----------------------------------|
----------------------------------|----------------------------------|
----------------------------------|----------------------------------|
----------5-5-5-5-7-7-7-7-8-8-8-8-|----------5-5-5-5---------4-4-4-4-|
--8-8-8-8-------------------------|--5-5-5-5---------7-7-7-7---------|

   S S E  S S E  S S E  E  E     W                   S S E  S S E  S S E  E  E
-----------------------------|-------------------|-----------------------------|
-----------------------------|-------------------|-----------------------------|
-----------------------------|-------------------|-----------------------------|
-----------------------------|-------------------|-----------------------------|
--0-0-0--0-0-0--0-0-0--L--L--|--L----------------|--0-0-0--0-0-0--0-0-0--L--L--|
--0-0-0--0-0-0--0-0-0--L--L--|--L----------------|--0-0-0--0-0-0--0-0-0--L--L--|

  W                   S S E  S S E  S S E  E  E     W                 
-------------------|-----------------------------|-------------------|
-------------------|-----------------------------|-------------------|
-------------------|-----------------------------|-------------------|
-------------------|-----------------------------|-------------------|
--L----------------|--0-0-0--0-0-0--0-0-0--L--L--|--L----------------|
--L----------------|--0-0-0--0-0-0--0-0-0--L--L--|--L----------------|

   S S E  S S E  S S E  E  E     W                   S S E  S S E  S S E  E  E
-----------------------------|-------------------|-----------------------------|
-----------------------------|-------------------|-----------------------------|
-----------------------------|-------------------|-----------------------------|
-----------------------------|-------------------|-----------------------------|
--0-0-0--0-0-0--0-0-0--L--L--|--L----------------|--0-0-0--0-0-0--0-0-0--------|
--0-0-0--0-0-0--0-0-0--L--L--|--L----------------|--0-0-0--0-0-0--0-0-0--------|

   E  S S E  S S E  S S E  E     S S E  S S E  S S E  E  E
-----------------------------|-----------------------------|
-----------------------------|-----------------------------|
-----------------------------|-----------------------------|
-----------------------------|-----------------------------|
-----0-0-0--0-0-0--0-0-0-----|--0-0-0--0-0-0--0-0-0--------|
-----0-0-0--0-0-0--0-0-0-----|--0-0-0--0-0-0--0-0-0--------|

   S S S S S S S S E  E    E   E     S S E  S S E  S S E  E  E
---------------------------------|-----------------------------|
---------------------------------|-----------------------------|
---------------------------------|-----------------------------|
---------------------------------|-----------------------------|
------------------------<>3~--L--|--0-0-0--0-0-0--0-0-0--------|
--0-0-0-0-0-0-0-0-3--0-----------|--0-0-0--0-0-0--0-0-0--------|

   E  S S E  S S E  S S E  E     S S E  S S E  S S E  E  E
-----------------------------|-----------------------------|
-----------------------------|-----------------------------|
-----------------------------|-----------------------------|
-----------------------------|-----------------------------|
-----0-0-0--0-0-0--0-0-0-----|--0-0-0--0-0-0--0-0-0--------|
-----0-0-0--0-0-0--0-0-0-----|--0-0-0--0-0-0--0-0-0--------|

   E    E   E    E   E    E   E    E     S S E  S S E  S S E  E  E
-------------------------------------|-----------------------------|
-------------------------------------|-----------------------------|
--9s--10--10s--12--12s--14--14s--15--|-----------------------------|
-------------------------------------|-----------------------------|
--7s---8---8s--10--10s--12--12s--13--|--0-0-0--0-0-0--0-0-0--L--L--|
-------------------------------------|--0-0-0--0-0-0--0-0-0--L--L--|

   E    E   E    E   E    E   E    E     S S E    S  S E  S S E  E  E
-------------------------------------|--------------------------------|
-------------------------------------|--------------------------------|
--9s--10--10s--12--12s--14--14s--15--|--------------------------------|
-------------------------------------|--------------------------------|
--7s---8---8s--10--10s--12--12s--13--|--0-0-0--<>3~-L-L--0------------|
-------------------------------------|--0-0-0------------0------------|

   W                   S S E  S S E  S S E  E  E
-------------------|-----------------------------|
-------------------|-----------------------------|
-------------------|-----------------------------|
-------------------|-----------------------------|
-------------------|--0-0-0--0-0-0--0-0-0--L--L--|
-------------------|--0-0-0--0-0-0--0-0-0--L--L--|

   E    E   E    E   E    E   E    E     S S E    S  S E  S S E  E  E
-------------------------------------|--------------------------------|
-------------------------------------|--------------------------------|
--9s--10--10s--12--12s--14--14s--15--|--------------------------------|
-------------------------------------|--------------------------------|
--7s---8---8s--10--10s--12--12s--13--|--0-0-0--<>3~-L-L--0------------|
-------------------------------------|--0-0-0------------0------------|


      PM PM               W         PM PM               W   
   S S E  E  E  E  E  E    E     S S E  E  E  E  E  E    E
-----------------------------|-----------------------------|
-----------------------------|-----------------------------|
-----------------------------|-----------------------------|
---------------3--------<>3--|---------------3--------<>3--|
--0-0-3--2--0--1--0--3-------|--0-0-3--2--0--1--0--3-------|
--0-0-3--2--0-----0--3-------|--0-0-3--2--0-----0--3-------|


      PM PM               W                                      
  S S E  E  E  E  E  E    E     S S S S S S S S S S S S S S S S  
-----------------------------|----------------------------------|
-----------------------------|----------------------------------|
-----------------------------|----------------------------------|
---------------3--------<>3--|----------------------------------|
--0-0-3--2--0--1--0--3-------|--5-5-5-5-4-4-4-4-8-8-8-8-7-7-7-7-|
--0-0-3--2--0-----0--3-------|----------------------------------|


      PM PM               W         PM PM               W   
   S S E  E  E  E  E  E    E     S S E  E  E  E  E  E    E
-----------------------------|-----------------------------|
-----------------------------|-----------------------------|
-----------------------------|-----------------------------|
---------------3--------<>3--|---------------3--------<>3--|
--0-0-3--2--0--1--0--3-------|--0-0-3--2--0--1--0--3-------|
--0-0-3--2--0-----0--3-------|--0-0-3--2--0-----0--3-------|


      PM PM               W                                      
  S S E  E  E  E  E  E    E     S S S S S S S S S S S S S S S S  
-----------------------------|----------------------------------|
-----------------------------|----------------------------------|
-----------------------------|----------------------------------|
---------------3--------<>3--|----------------------------------|
--0-0-3--2--0--1--0--3-------|--5-5-5-5-4-4-4-4-8-8-8-8-7-7-7-7-|
--0-0-3--2--0-----0--3-------|----------------------------------|


      PM PM                          PM PM       PM   W   
   S S E  E  E  E  E  E  E     E  S S E  E  E  E  E    E
---------------------------|-----------------------------|
---------------------------|-----------------------------|
---------------------------|-----------------------------|
---------------3-----------|---------------3--------<>3--|
--0-0-3--2--0--1--0--------|-----0-0-3--0--1--0--3-------|
--0-0-3--2--0-----0--------|-----0-0-3--0-----0--3-------|


      PM PM                                                                 
  S S E  E  E  E  E  E  E     S  S S  S S  S  S  S  S  S  S  S  S  S  S  S  
---------------------------|-----------------------------------------------|
---------------------------|-----------------------------------------------|
---------------------------|-------9-12------10-13-------11-14-------12-15-|
---------------3-----------|--8-11------9-12-------10-13-------11-14-------|
--0-0-3--2--0--1--0--------|-----------------------------------------------|
--0-0-3--2--0-----0--------|-----------------------------------------------|


      PM PM                          PM PM       PM   W   
   S S E  E  E  E  E  E  E     E  S S E  E  E  E  E    E
---------------------------|-----------------------------|
---------------------------|-----------------------------|
---------------------------|-----------------------------|
---------------3-----------|---------------3--------<>3--|
--0-0-3--2--0--1--0--------|-----0-0-3--0--1--0--3-------|
--0-0-3--2--0-----0--------|-----0-0-3--0-----0--3-------|


      PM PM                                                                 
  S S E  E  E  E  E  E  E     S  S S  S S  S  S  S  S  S  S  S  S  S  S  S  
---------------------------|-----------------------------------------------|
---------------------------|-----------------------------------------------|
---------------------------|-------9-12------10-13-------11-14-------12-15-|
---------------3-----------|--8-11------9-12-------10-13-------11-14-------|
--0-0-3--2--0--1--0--------|-----------------------------------------------|
--0-0-3--2--0-----0--------|-----------------------------------------------|


                                                     PM                 PM PM  
    S  S  S  S  S  S  S  S  S  S  S  S  S  S  S  S    E  E  E  E  E  S S E  E
--------------------------------------------------|---------------------------|
--------------------------------------------------|---------------------------|
--------13-16-------14-17-------15-18-------16-19-|---------------------------|
--12-15-------13-16-------14-17-------15-18-------|---------------------------|
--------------------------------------------------|--1--0--L--L--L--0-0-1--3--|
--------------------------------------------------|--1--0--L--L--L--0-0-1--3--|


  PM                         PM                 PM PM  
   E  E  E  E  E  E  E  E     E  E  E  E  E  S S E  E
--------------------------|---------------------------|
--------------------------|---------------------------|
--------------------------|---------------------------|
--------------------------|---------------------------|
--1--0--L--L--L--L--L--L--|--1--0--L--L--L--0-0-1--3--|
--1--0--L--L--L--L--L--L--|--1--0--L--L--L--0-0-1--3--|


  PM                                                   
   E  E  E  E  E  E  E  E     E  E  E  E  E  S S E  E
--------------------------|---------------------------|
--------------------------|---------------------------|
--------------------------|---------------------------|
--------------------------|---------------------------|
--1--0--L--L--L--L--L--L--|--1--0-----------0-0-1--3--|
--1--0--L--L--L--L--L--L--|--1--0-----------0-0-1--3--|

   E  E  E  E  E  E  E  E     E  E  E  E  E  S S E  E
--------------------------|---------------------------|
--------------------------|---------------------------|
--------------------------|---------------------------|
--------------------------|---------------------------|
--1--0--------------------|--1--0-----------0-0-1--3--|
--1--0--------------------|--1--0-----------0-0-1--3--|

  |-3-|   |--3-|   |-3-|   |-3-|                                        
   S S S S S  S S S S S S S S S S S S S S S    E  E  E  E  E  S S E  E
-------------------------------------------|---------------------------|
-------------------------------------------|---------------------------|
-------------------------------------------|---------------------------|
-------------------------------------------|---------------------------|
--5-8-5---7-10-7---5-8-5---4-7-4---1-4-1-L-|--1--0-----------0-0-1--3--|
--------0--------0-------0-------0---------|--1--0-----------0-0-1--3--|

   E  E  E  E  E  E  E  E     E  E  E  E  E  S S E  E
--------------------------|---------------------------|
--------------------------|---------------------------|
--------------------------|---------------------------|
--------------------------|---------------------------|
--1--0--------------------|--1--0-----------0-0-1--3--|
--1--0--------------------|--1--0-----------0-0-1--3--|

   E  E  E  E  E  E  E  E     E  E  E  E  E  S S E  E
--------------------------|---------------------------|
--------------------------|---------------------------|
--------------------------|---------------------------|
--------------------------|---------------------------|
--1--0--------------------|--1--0-----------0-0-1--3--|
--1--0--------------------|--1--0-----------0-0-1--3--|

   E  E  E  E  E  E  E  E     E  E  E  E  E  S S E  E
--------------------------|---------------------------|
--------------------------|---------------------------|
--------------------------|---------------------------|
--------------------------|---------------------------|
--1--0--------------------|--1--0-----------0-0-1--3--|
--1--0--------------------|--1--0-----------0-0-1--3--|

  |-3-|   |--3-|   |-3-|   |-3-|                                        
   S S S S S  S S S S S S S S S S S S S S S    E  E  E  E  E  S S E  E
-------------------------------------------|---------------------------|
-------------------------------------------|---------------------------|
-------------------------------------------|---------------------------|
-------------------------------------------|---------------------------|
--5-8-5---7-10-7---5-8-5---4-7-4---1-4-1-L-|--1--0-----------0-0-1--3--|
--------0--------0-------0-------0---------|--1--0-----------0-0-1--3--|

   E  E  E  E  E  E  E  E     E  E  E  E  E  S S E  E
--------------------------|---------------------------|
--------------------------|---------------------------|
--------------------------|---------------------------|
--------------------------|---------------------------|
--1--0--------------------|--1--0-----------0-0-1--3--|
--1--0--------------------|--1--0-----------0-0-1--3--|

   E  E  E  E  E  E  E  E     E  E  E  E  E  E  E  E
--------------------------|--------------------------|
--------------------------|--------------------------|
--------------------------|--------------------------|
--------------------------|--------------------------|
--1--0--------------------|--------5--8--------5--8--|
--1--0--------------------|--0--0--------0--0--------|

   E  E  E  E  E  E  E  E     E  E  E   E  E  E  E   E
--------------------------|----------------------------|
--------------------------|----------------------------|
--------------------------|----------------------------|
--------------------------|----------------------------|
--------5--8--------5--8--|--------7--10--------7--10--|
--0--0--------0--0--------|--0--0---------0--0---------|

   E  E  E  E  E  E  E  E     E  E  E  E  E  E  E  E
--------------------------|--------------------------|
--------------------------|--------------------------|
--------------------------|--------------------------|
--------------------------|--------------------------|
--------4--7--------4--7--|--------5--8--------5--8--|
--0--0--------0--0--------|--0--0--------0--0--------|

   E  E  E  E  E  E  E  E     E  E  E   E  E  E  E   E
--------------------------|----------------------------|
--------------------------|----------------------------|
--------------------------|----------------------------|
--------------------------|----------------------------|
--------5--8--------5--8--|--------7--10--------7--10--|
--0--0--------0--0--------|--0--0---------0--0---------|

   E  E  E  E  E  E  E  E     E  E  E  E  E  E  E  E
--------------------------|--------------------------|
--------------------------|--------------------------|
--------------------------|--------------------------|
--------------------------|--------------------------|
--------4--7--------4--7--|--------5--8--------5--8--|
--0--0--------0--0--------|--0--0--------0--0--------|

   E  E  E  E  E  E  E  E     E  E  E   E  E  E  E   E
--------------------------|----------------------------|
--------------------------|----------------------------|
--------------------------|----------------------------|
--------------------------|----------------------------|
--------5--8--------5--8--|--------7--10--------7--10--|
--0--0--------0--0--------|--5--5---------5--5---------|

  E  E  E  E  E  E  E  E     S S S S S S S S S S S S S S S S  
--------------------------|----------------------------------|
--------------------------|----------------------------------|
--------------------------|----------------------------------|
--------------------------|----------------------------------|
--0--0--4--7--0--0--4--7--|--5-5-5-5-5-5-5-5-5-5-5-5-5-5-5-5-|
--------------------------|----------------------------------|

  S S S S S S S S S S S S S S S S    S S S S S S S S S S S S S S S S  
----------------------------------|----------------------------------|
----------------------------------|----------------------------------|
----------------------------------|----------------------------------|
----------------------------------|----------------------------------|
--5-5-5-5-5-5-5-5-5-5-5-5-5-5-5-5-|--7-7-7-7-7-7-7-7-7-7-7-7-7-7-7-7-|
----------------------------------|----------------------------------|

  S S S S S S S S S S S S S S S S    S S S S S S S S S S S S S S S S  
----------------------------------|----------------------------------|
----------------------------------|----------------------------------|
----------------------------------|----------------------------------|
----------------------------------|--------------------------8-8-8-8-|
--8-8-8-8-8-8-8-8-8-8-8-8-8-8-8-8-|----------5-5-5-5-8-8-8-8---------|
----------------------------------|--0-0-0-0-------------------------|

   S S S S S S S S S S S S S S S S    E  E  E  E  E  E  E  E
----------------------------------|--------------------------|
----------------------------------|--------------------------|
----------------------------------|--------------------------|
--7-7-7-7-5-5-5-5-----------------|--8--L--L--L--L--L--L--L--|
------------------8-8-8-8-7-7-7-7-|--8--L--L--L--L--L--L--L--|
----------------------------------|--8--L--L--L--L--L--L--L--|

  H        H           S S S S S S S S S S S S S S S S  
--------------------|----------------------------------|
--------------------|----------------------------------|
--------------------|----------------------------------|
--5--------7--------|--------------------------8-8-8-8-|
--5--------7--------|----------5-5-5-5-8-8-8-8---------|
--5--------7--------|--0-0-0-0-------------------------|

                                             |--3--|          |--3--|   
   S S S S S S S S S S S S S S S S    S S S S E  E  E  S S S S E  E  E
----------------------------------|------------------------------------|
----------------------------------|------------------------------------|
----------------------------------|------------------------------------|
--7-7-7-7-5-5-5-5-----------------|------------------------------------|
------------------8-8-8-8-7-7-7-7-|----------5--7--5----------5--7--5--|
----------------------------------|--8-8-8-8----------8-8-8-8----------|

          |--3--|          |--3--|                                      
  S S S S E  E  E  S S S S E  E  E     S S S S S S S S S S S S S S S S  
------------------------------------|----------------------------------|
------------------------------------|----------------------------------|
------------------------------------|----------------------------------|
------------------------------------|--------------------------8-8-8-8-|
----------5--8--5----------4--7--4--|----------5-5-5-5-8-8-8-8---------|
--5-5-5-5----------7-7-7-7----------|--0-0-0-0-------------------------|

  S S S S S S S S S S S S S S S S    S S S S S S S S S S S S S S S S  
----------------------------------|----------------------------------|
----------------------------------|----------------------------------|
----------------------------------|----------------------------------|
--7-7-7-7-5-5-5-5-----------------|----------------------------------|
------------------8-8-8-8-7-7-7-7-|----------5-5-5-5-7-7-7-7-8-8-8-8-|
----------------------------------|--8-8-8-8-------------------------|

  S S S S S S S S S S S S S S S S    W                   W                 
----------------------------------|-------------------|-------------------|
----------------------------------|-------------------|-------------------|
----------------------------------|-------------------|-------------------|
----------------------------------|-------------------|-------------------|
----------5-5-5-5---------4-4-4-4-|--0----------------|--L----------------|
--5-5-5-5---------7-7-7-7---------|--0----------------|--L----------------|

  W                    H        H           W                 
-------------------|---------------------|-------------------|
-------------------|---------------------|-------------------|
--7----------------|--10--------6--------|-------------------|
-------------------|---------------------|-------------------|
--5----------------|---8--------4--------|--0----------------|
-------------------|---------------------|--0----------------|

  W                    H        H           W                 
-------------------|---------------------|-------------------|
-------------------|---------------------|-------------------|
-------------------|---------------------|-------------------|
-------------------|---------------------|-------------------|
--L----------------|---------------------|-------------------|
--L----------------|--12--------L--------|--L----------------|

    E    E   E   E    E   E   E    E      E    E   E   E    E   E   E    E
-------10--10-------10--10-------10--|-------10--10-------10--10-------10--|
--13b---L---L--13b---L---L--13b---L--|--13b---L---L--13b---L---L--13b---L--|
-------------------------------------|-------------------------------------|
-------------------------------------|-------------------------------------|
-------------------------------------|-------------------------------------|
-------------------------------------|-------------------------------------|

    S   S   E   E   S   S   E   E   S   S   E
--10h-13p-10------10h-13p-10------10h-13p-10--|
--------------13--------------13--------------|
----------------------------------------------|
----------------------------------------------|
----------------------------------------------|
----------------------------------------------|

                                                         |----3----|          
    E   S   S   E   S   S   E   E   E   E      H          E     E   E  E   E
------10h-13p-10--10h-13p-10------13--10--|--13b--------13pb--12-------------|
--12--------------------------13----------|-----------------------10--8s--6--|
------------------------------------------|----------------------------------|
------------------------------------------|----------------------------------|
------------------------------------------|----------------------------------|
------------------------------------------|----------------------------------|

  Q    H        Q      
----------------------|
--6----5--------L/----|
----------------------|
----------------------|
----------------------|
----------------------|

   |----3----|   |----3----|   |----3----|   |----3----|   
    E    E    E   E    E    E   E    E    E   E    E    E
--17p--15p--13----------------13p--12p--10----------------|
----------------17p--15p--13----------------13p--11p--10--|
----------------------------------------------------------|
----------------------------------------------------------|
----------------------------------------------------------|
----------------------------------------------------------|

   |----3---|                                                         
    E    E   E   E  E  H               E   E   E   E   E   E   E   E
--------------------------------||---17----------17----------17------|
--11p--10p--8-------------------||-------18----------18----------18--|
---------------10--9--7~--------||*----------19----------19----------|
--------------------------------||*----------------------------------|
--------------------------------||-----------------------------------|
--------------------------------||-----------------------------------|

    E   E   E   E   E   E   E   E
--18----------18----------18------|
------18----------18----------18--|
----------19----------19----------|
----------------------------------|
----------------------------------|
----------------------------------|

   |----3----|   |----3----|   |----3----|   |----3----|   
    E    E    E   E    E    E   E    E    E   E    E    E
--20p--13p--10--20p--13p--10--20p--13p--10--20p--13p--10--|
----------------------------------------------------------|
----------------------------------------------------------|
----------------------------------------------------------|
----------------------------------------------------------|
----------------------------------------------------------|

   |----3----|   |----3----|   |----3----|   |----3----|     
    E    E    E   E    E    E   E    E    E   E    E    E
--20p--13p--10--20p--13p--10--20p--13p--10--20p--13p--10---||
-----------------------------------------------------------||
----------------------------------------------------------*||
----------------------------------------------------------*||
-----------------------------------------------------------||
-----------------------------------------------------------||

    |----3----|   |----3----|   |----3----|   |----3----|   
     E    E    E   E    E    E   E    E    E   E    E    E
---22p--13p--10--20p--13p--10--22p--13p--10--24p--13p--10--|
-----------------------------------------------------------|
*----------------------------------------------------------|
*----------------------------------------------------------|
-----------------------------------------------------------|
-----------------------------------------------------------|

   |----3----|   |----3----|   |----3----|   |----3----|   
    E    E    E   E    E    E   E    E    E   E    E    E
--22p--13p--10--20p--13p--10--22p--13p--10--20p--13p--10--|
----------------------------------------------------------|
----------------------------------------------------------|
----------------------------------------------------------|
----------------------------------------------------------|
----------------------------------------------------------|

   |----3----|   |----3----|   |----3----|   |----3----|   
    E    E    E   E    E    E   E    E    E   E    E    E
--22p--13p--10--20p--13p--10--22p--13p--10--24p--13p--10--|
----------------------------------------------------------|
----------------------------------------------------------|
----------------------------------------------------------|
----------------------------------------------------------|
----------------------------------------------------------|

   |----3----|   |----3----|   |----3----|   |----3----|     
    E    E    E   E    E    E   E    E    E   E    E    E
--22p--13p--10--20p--13p--10--22p--13p--10--20p--13p--10---||
-----------------------------------------------------------||
----------------------------------------------------------*||
----------------------------------------------------------*||
-----------------------------------------------------------||
-----------------------------------------------------------||

   |----3----|   |----3----|   |----3----|   |----3----|   
    E    E    E   E    E    E   E    E    E   E    E    E
--17p--15p--13--------------------------------------------|
----------------17p--15p--13------------------------------|
------------------------------15p--14p--12----------------|
--------------------------------------------15p--14p--12--|
----------------------------------------------------------|
----------------------------------------------------------|

   E  E  E  E  E  E  E  E     E  S E  S E  E  S S E  E
--------------------------|----------------------------|
--------------------------|----------------------------|
--------------------------|----------------------------|
--------------------------|----------------------------|
--0-----------------------|-----0-0--0-0-----0-0-0-----|
--0-----------------------|-----0-0--0-0-----0-0-0-----|

   E  E  E  E  E  E  E  E     E  S E  S E  E  S S E  E
--------------------------|----------------------------|
--------------------------|----------------------------|
--------------------------|----------------------------|
--------------------------|----------------------------|
--0-----------------------|-----0-0--0-0-----0-0-0-----|
--0-----------------------|-----0-0--0-0-----0-0-0-----|

   E  E  E  E  E  E  E  E     E  S E  S E  E  S S E  E
--------------------------|----------------------------|
--------------------------|----------------------------|
--------------------------|----------------------------|
--------------------------|----------------------------|
--0-----------------------|-----0-0--0-0-----0-0-0-----|
--0-----------------------|-----0-0--0-0-----0-0-0-----|

   E  E  E  E  E  E  E  E     E  S E  S E  E  S S E  E
--------------------------|----------------------------|
--------------------------|----------------------------|
--------------------------|----------------------------|
--------------------------|----------------------------|
--0-----------------------|-----0-0--0-0-----0-0-0-----|
--0-----------------------|-----0-0--0-0-----0-0-0-----|

   E  E  E  E  E  E  E  E     E  S E  S E  E  S S E  E
--------------------------|----------------------------|
--------------------------|----------------------------|
--------------------------|----------------------------|
--------------------------|----------------------------|
--1-----------------------|-----1-1--1-1-----1-1-1-----|
--1-----------------------|-----1-1--1-1-----1-1-1-----|

   E  E  E  E  E  E  E  E     E  S E  S E  E  S S E  E
--------------------------|----------------------------|
--------------------------|----------------------------|
--------------------------|----------------------------|
--------------------------|----------------------------|
--1-----------------------|-----1-1--1-1-----1-1-1-----|
--1-----------------------|-----1-1--1-1-----1-1-1-----|

   E  E  E  E  E  E  E  E     E  S E  S E  E  S S E  E
--------------------------|----------------------------|
--------------------------|----------------------------|
--------------------------|----------------------------|
--------------------------|----------------------------|
--0-----------------------|-----0-0--0-0-----0-0-0-----|
--0-----------------------|-----0-0--0-0-----0-0-0-----|

   E  E  E  E  E  E  E  E     E  S E  S E  E  S S E  E
--------------------------|----------------------------|
--------------------------|----------------------------|
--------------------------|----------------------------|
--------------------------|----------------------------|
--0-----------------------|-----0-0--0-0-----0-0-0-----|
--0-----------------------|-----0-0--0-0-----0-0-0-----|

   E  E  E  E  E  E  E  E     E  S E  S E  E  S S E  E
--------------------------|----------------------------|
--------------------------|----------------------------|
--------------------------|----------------------------|
--------------------------|----------------------------|
--0-----------------------|-----0-0--0-0-----0-0-0-----|
--0-----------------------|-----0-0--0-0-----0-0-0-----|

   E  E  E  E  E  E  E  E     E  S E  S E  E  S S E  E
--------------------------|----------------------------|
--------------------------|----------------------------|
--------------------------|----------------------------|
--------------------------|----------------------------|
--0-----------------------|-----0-0--0-0-----0-0-0-----|
--0-----------------------|-----0-0--0-0-----0-0-0-----|

[ Tab from: http://www.guitartabs.cc/tabs/b/bring_me_the_horizon/black_and_blue_tab_ver_2.html ]
   E  E  E  E  E  E  E  E     E  S E  S E  E  S S E  E
--------------------------|----------------------------|
--------------------------|----------------------------|
--------------------------|----------------------------|
--------------------------|----------------------------|
--0-----------------------|-----0-0--0-0-----0-0-0-----|
--0-----------------------|-----0-0--0-0-----0-0-0-----|

   E  E  E  E  E  E  E  E     E  S E  S E  E  S S E  E
--------------------------|----------------------------|
--------------------------|----------------------------|
--------------------------|----------------------------|
--------------------------|----------------------------|
--0-----------------------|-----0-0--0-0-----0-0-0-----|
--0-----------------------|-----0-0--0-0-----0-0-0-----|

   E  E  E  E  E  E  E  E
--------------------------|-----||
--------------------------|-----||
--------------------------|-----||
--------------------------|-----||
--0-----------------------|-----||
--0-----------------------|-----||

Guitar 2
                                    |--3--|        |--3--|   
                               E  E  E  E  E  E  E  E  E  E
C#||-------|-------|-------|--------------------------------|
G#||-------|-------|-------|--------------------------------|
E ||-------|-------|-------|--------------------------------|
B ||-------|-------|-------|--------------------------------|
F#||-------|-------|-------|--------5--8--5--------4--7--4--|
B ||-------|-------|-------|--0--0-----------0--0-----------|


  W                   W                   W                 
-------------------|-------------------|-------------------|
-------------------|-------------------|-------------------|
-------------------|-------------------|-------------------|
-------------------|-------------------|-------------------|
--0----------------|--L----------------|--L----------------|
--0----------------|--L----------------|--L----------------|

        |--3--|        |--3--|                                
   E  E  E  E  E  E  E  E  E  E     E  E  E  E  E   E  E   E
--------------------------------|---------------------9--12--|
--------------------------------|--------------8--11---------|
--------------------------------|--------6--9----------------|
--------------------------------|--5--8----------------------|
--------5--8--5--------4--7--4--|----------------------------|
--0--0-----------0--0-----------|----------------------------|

   E  E  E  E  E  E  E  E     E  E  E  E  E  E  E  E
--------------------------|--------------------------|
--------------------------|--------------------------|
--------------------------|--------------------------|
--------------------------|--------------------------|
--------5-----6-----3--5--|--------------------------|
--0--0-----0-----0--------|--0--0--0--0--0--0--0--0--|

                                   |--3--|        |--3--|   
   E  E  E  E  E  E  E  E     E  E  E  E  E  E  E  E  E  E
--------------------------|--------------------------------|
--------------------------|--------6--9--6--------5--8--5--|
--------------------------|--------------------------------|
--------------------------|--------------------------------|
--------5-----6-----3--5--|--------------------------------|
--0--0-----0-----0--------|--0--0-----------0--0-----------|

   E  E  E  E  E  E  E  E     E  E  E  E  E  E  E  E
--------------------------|--------------------------|
--------------------------|--------------------------|
--------------------------|--------------------------|
--------------------------|--------------------------|
--------5-----6-----3--5--|--------------------------|
--0--0-----0-----0--------|--0--0--0--0--0--0--0--0--|

                                   |--3--|        |--3--|   
   E  E  E  E  E  E  E  E     E  E  E  E  E  E  E  E  E  E
--------------------------|--------------------------------|
--------------------------|--------6--9--6--------5--8--5--|
--------------------------|--------------------------------|
--------------------------|--------------------------------|
--------5-----6-----3--5--|--------------------------------|
--0--0-----0-----0--------|--0--0-----------0--0-----------|

   E  E  E  E  E  E  E  E     E  E  E  E  E  E  E  E
--------------------------|--------------------------|
--------------------------|--------------------------|
--------------------------|--------------------------|
--------------------------|--------------------------|
--------5-----6-----3--5--|--------------------------|
--0--0-----0-----0--------|--0--0--0--0--0--0--0--0--|

                                   |--3--|        |--3--|   
   E  E  E  E  E  E  E  E     E  E  E  E  E  E  E  E  E  E
--------------------------|--------------------------------|
--------------------------|--------6--9--6--------5--8--5--|
--------------------------|--------------------------------|
--------------------------|--------------------------------|
--------5-----6-----3--5--|--------------------------------|
--0--0-----0-----0--------|--0--0-----------0--0-----------|

   E  E  E  E  E  E  E  E     E  E  E  E  E  E  E  E
--------------------------|--------------------------|
--------------------------|--------------------------|
--------------------------|--------------------------|
--------------------------|--------------------------|
--------5-----6-----3--5--|--------------------------|
--0--0-----0-----0--------|--0--0--0--0--0--0--0--0--|

                                   |--3--|        |--3--|   
   E  E  E  E  E  E  E  E     E  E  E  E  E  E  E  E  E  E
--------------------------|--------------------------------|
--------------------------|--------6--9--6--------5--8--5--|
--------------------------|--------------------------------|
--------------------------|--------------------------------|
--------5-----6-----3--5--|--------------------------------|
--0--0-----0-----0--------|--0--0-----------0--0-----------|

   E  E  E  E  E   E  E   E     E  E  E  E  E  E  E  E
---------------------9--12--|--------------------------|
--------------8--11---------|--------------------------|
--------6--9----------------|--------------------------|
--5--8----------------------|--------------------------|
----------------------------|--------5--8--------5--8--|
----------------------------|--0--0--------0--0--------|

   E  E  E  E  E  E  E  E     E  E  E   E  E  E  E   E
--------------------------|----------------------------|
--------------------------|----------------------------|
--------------------------|----------------------------|
--------------------------|----------------------------|
--------5--8--------5--8--|--------7--10--------7--10--|
--0--0--------0--0--------|--0--0---------0--0---------|

   E  E  E  E  E  E  E  E     E  E  E  E  E  E  E  E
--------------------------|--------------------------|
--------------------------|--------------------------|
--------------------------|--------------------------|
--------------------------|--------------------------|
--------4--7--------4--7--|--------5--8--------5--8--|
--0--0--------0--0--------|--0--0--------0--0--------|

   E  E  E  E  E  E  E  E     E  E  E   E  E  E  E   E
--------------------------|----------------------------|
--------------------------|----------------------------|
--------------------------|----------------------------|
--------------------------|----------------------------|
--------5--8--------5--8--|--------7--10--------7--10--|
--0--0--------0--0--------|--0--0---------0--0---------|

   E  E  E  E  E  E  E  E     E  E  E  E  E  E  E  E
--------------------------|--------------------------|
--------------------------|--------------------------|
--------------------------|--------------------------|
--------------------------|--------3--7--------3--7--|
--------4--7--------4--7--|--------------------------|
--0--0--------0--0--------|--0--0--------0--0--------|

   E  E  E  E  E  E  E  E     E  E  E  E  E  E  E  E
--------------------------|--------------------------|
--------------------------|--------------------------|
--------------------------|--------------------------|
--------3--7--------3--7--|--------5--8--------5--8--|
--------------------------|--------------------------|
--0--0--------0--0--------|--0--0--------0--0--------|

   E  E  E  E  E  E  E  E     E  E  E  E  E  E  E  E
--------------------------|--------------------------|
--------------------------|--------------------------|
--------------------------|--------------------------|
--------2--5--------2--5--|--------3--7--------3--7--|
--------------------------|--------------------------|
--0--0--------0--0--------|--0--0--------0--0--------|

   E  E  E  E  E  E  E  E     E  E  E  E  E  E  E  E
--------------------------|--------------------------|
--------------------------|--------------------------|
--------------------------|--------------------------|
--------3--7--------3--7--|--------5--8--------5--8--|
--------------------------|--------------------------|
--0--0--------0--0--------|--0--0--------0--0--------|

  E  E  E  E  E  E  E  E     Q    Q    Q    Q       W                 
--------------------------|----------------------|-------------------|
--------------------------|----------------------|-------------------|
--------------------------|----------------------|-------------------|
--------2--5--------2--5--|----------------------|-------------------|
--------------------------|--0-------------------|-------------------|
--0--0--------0--0--------|--0-------------------|-------------------|

          |--3--|          |--3--|             |--3--|          |--3--|   
   S S S S E  E  E  S S S S E  E  E     S S S S E  E  E  S S S S E  E  E
------------------------------------|------------------------------------|
------------------------------------|------------------------------------|
------------------------------------|------------------------------------|
------------------------------------|------------------------------------|
----------5--7--5----------5--7--5--|----------5--8--5----------4--7--4--|
--8-8-8-8----------8-8-8-8----------|--5-5-5-5----------7-7-7-7----------|

  S S S S S S S S S S S S S S S S    S S S S S S S S S S S S S S S S  
----------------------------------|----------------------------------|
----------------------------------|----------------------------------|
----------------------------------|----------------------------------|
--------------------------8-8-8-8-|--7-7-7-7-5-5-5-5-----------------|
----------5-5-5-5-8-8-8-8---------|------------------8-8-8-8-7-7-7-7-|
--0-0-0-0-------------------------|----------------------------------|

          |--3--|          |--3--|             |--3--|          |--3--|   
   S S S S E  E  E  S S S S E  E  E     S S S S E  E  E  S S S S E  E  E
------------------------------------|------------------------------------|
------------------------------------|------------------------------------|
------------------------------------|------------------------------------|
------------------------------------|------------------------------------|
----------5--7--5----------5--7--5--|----------5--8--5----------4--7--4--|
--8-8-8-8----------8-8-8-8----------|--5-5-5-5----------7-7-7-7----------|

  S S S S S S S S S S S S S S S S    S S S S S S S S S S S S S S S S  
----------------------------------|----------------------------------|
----------------------------------|----------------------------------|
----------------------------------|----------------------------------|
--------------------------8-8-8-8-|--7-7-7-7-5-5-5-5-----------------|
----------5-5-5-5-8-8-8-8---------|------------------8-8-8-8-7-7-7-7-|
--0-0-0-0-------------------------|----------------------------------|

  S S S S S S S S S S S S S S S S    S S S S S S S S S S S S S S S S  
----------------------------------|----------------------------------|
----------------------------------|----------------------------------|
----------------------------------|----------------------------------|
----------------------------------|----------------------------------|
----------5-5-5-5-7-7-7-7-8-8-8-8-|----------5-5-5-5---------4-4-4-4-|
--8-8-8-8-------------------------|--5-5-5-5---------7-7-7-7---------|

  S S S S S S S S S S S S S S S S    S S S S S S S S S S S S S S S S  
----------------------------------|----------------------------------|
----------------------------------|----------------------------------|
----------------------------------|----------------------------------|
--------------------------8-8-8-8-|--7-7-7-7-5-5-5-5-----------------|
----------5-5-5-5-8-8-8-8---------|------------------8-8-8-8-7-7-7-7-|
--0-0-0-0-------------------------|----------------------------------|

  S S S S S S S S S S S S S S S S    S S S S S S S S S S S S S S S S  
----------------------------------|----------------------------------|
----------------------------------|----------------------------------|
----------------------------------|----------------------------------|
----------------------------------|----------------------------------|
----------5-5-5-5-7-7-7-7-8-8-8-8-|----------5-5-5-5---------4-4-4-4-|
--8-8-8-8-------------------------|--5-5-5-5---------7-7-7-7---------|

   S S E  S S E  S S E  E  E     W                   S S E  S S E  S S E  E  E
-----------------------------|-------------------|-----------------------------|
-----------------------------|-------------------|-----------------------------|
-----------------------------|-------------------|-----------------------------|
-----------------------------|-------------------|-----------------------------|
--0-0-0--0-0-0--0-0-0--L--L--|--L----------------|--0-0-0--0-0-0--0-0-0--L--L--|
--0-0-0--0-0-0--0-0-0--L--L--|--L----------------|--0-0-0--0-0-0--0-0-0--L--L--|

  W                   S S E  S S E  S S E  E  E     W                 
-------------------|-----------------------------|-------------------|
-------------------|-----------------------------|-------------------|
-------------------|-----------------------------|-------------------|
-------------------|-----------------------------|-------------------|
--L----------------|--0-0-0--0-0-0--0-0-0--L--L--|--L----------------|
--L----------------|--0-0-0--0-0-0--0-0-0--L--L--|--L----------------|

   S S E  S S E  S S E  E  E     W                   S S E  S S E  S S E  E  E
-----------------------------|-------------------|-----------------------------|
-----------------------------|-------------------|-----------------------------|
-----------------------------|-------------------|-----------------------------|
-----------------------------|-------------------|-----------------------------|
--0-0-0--0-0-0--0-0-0--L--L--|--L----------------|--0-0-0--0-0-0--0-0-0--------|
--0-0-0--0-0-0--0-0-0--L--L--|--L----------------|--0-0-0--0-0-0--0-0-0--------|

   E  S S E  S S E  S S E  E     S S E  S S E  S S E  E  E
-----------------------------|-----------------------------|
-----------------------------|-----------------------------|
-----------------------------|-----------------------------|
-----------------------------|-----------------------------|
-----0-0-0--0-0-0--0-0-0-----|--0-0-0--0-0-0--0-0-0--------|
-----0-0-0--0-0-0--0-0-0-----|--0-0-0--0-0-0--0-0-0--------|

   S S S S S S S S E  E    E   E     S S E  S S E  S S E  E  E
---------------------------------|-----------------------------|
---------------------------------|-----------------------------|
---------------------------------|-----------------------------|
---------------------------------|-----------------------------|
------------------------<>3~--L--|--0-0-0--0-0-0--0-0-0--------|
--0-0-0-0-0-0-0-0-3--0-----------|--0-0-0--0-0-0--0-0-0--------|

   E  S S E  S S E  S S E  E     S S E  S S E  S S E  E  E
-----------------------------|-----------------------------|
-----------------------------|-----------------------------|
-----------------------------|-----------------------------|
-----------------------------|-----------------------------|
-----0-0-0--0-0-0--0-0-0-----|--0-0-0--0-0-0--0-0-0--------|
-----0-0-0--0-0-0--0-0-0-----|--0-0-0--0-0-0--0-0-0--------|

   E   E  E   E  E    E   E    E     S S E  S S E  S S E  E  E
---------------------------------|-----------------------------|
---------------------------------|-----------------------------|
--6s--7--7s--9--9s--10--10s--12--|-----------------------------|
---------------------------------|-----------------------------|
--4s--5--5s--7--7s---8---8s--10--|--0-0-0--0-0-0--0-0-0--L--L--|
---------------------------------|--0-0-0--0-0-0--0-0-0--L--L--|

   E   E  E   E  E    E   E    E     S S E  S S E  S S E  E  E
---------------------------------|-----------------------------|-----|
---------------------------------|-----------------------------|-----|
--6s--7--7s--9--9s--10--10s--12--|-----------------------------|-----|
---------------------------------|-----------------------------|-----|
--4s--5--5s--7--7s---8---8s--10--|--0-0-0--0-0-0--0------------|-----|
---------------------------------|--0-0-0--0-0-0--0------------|-----|

   S S E  S S E  S S E  E  E     E   E  E   E  E    E   E    E
-----------------------------|---------------------------------|
-----------------------------|---------------------------------|
-----------------------------|--6s--7--7s--9--9s--10--10s--12--|
-----------------------------|---------------------------------|
--0-0-0--0-0-0--0-0-0--L--L--|--4s--5--5s--7--7s---8---8s--10--|
--0-0-0--0-0-0--0-0-0--L--L--|---------------------------------|


                                    PM PM               W   
   S S E  S S E  S S E  E  E     S S E  E  E  E  E  E    E
-----------------------------|-----------------------------|
-----------------------------|-----------------------------|
-----------------------------|-----------------------------|
-----------------------------|---------------3--------<>3--|
--0-0-0--0-0-0--0------------|--0-0-3--2--0--1--0--3-------|
--0-0-0--0-0-0--0------------|--0-0-3--2--0-----0--3-------|


      PM PM               W         PM PM               W   
   S S E  E  E  E  E  E    E     S S E  E  E  E  E  E    E
-----------------------------|-----------------------------|
-----------------------------|-----------------------------|
-----------------------------|-----------------------------|
---------------3--------<>3--|---------------3--------<>3--|
--0-0-3--2--0--1--0--3-------|--0-0-3--2--0--1--0--3-------|
--0-0-3--2--0-----0--3-------|--0-0-3--2--0-----0--3-------|


                                         PM PM               W   
   S S S S S S S S S S S S S S S S    S S E  E  E  E  E  E    E
----------------------------------|-----------------------------|
----------------------------------|-----------------------------|
----------------------------------|-----------------------------|
--3-3-3-3-2-2-2-2-3-3-3-3-2-2-2-2-|---------------3--------<>3--|
----------------------------------|--0-0-3--2--0--1--0--3-------|
----------------------------------|--0-0-3--2--0-----0--3-------|


      PM PM               W         PM PM               W   
   S S E  E  E  E  E  E    E     S S E  E  E  E  E  E    E
-----------------------------|-----------------------------|
-----------------------------|-----------------------------|
-----------------------------|-----------------------------|
---------------3--------<>3--|---------------3--------<>3--|
--0-0-3--2--0--1--0--3-------|--0-0-3--2--0--1--0--3-------|
--0-0-3--2--0-----0--3-------|--0-0-3--2--0-----0--3-------|


                                         PM PM                 
   S S S S S S S S S S S S S S S S    S S E  E  E  E  E  E  E
----------------------------------|---------------------------|
----------------------------------|---------------------------|
----------------------------------|---------------------------|
--3-3-3-3-2-2-2-2-3-3-3-3-2-2-2-2-|---------------3-----------|
----------------------------------|--0-0-3--2--0--1--0--------|
----------------------------------|--0-0-3--2--0-----0--------|


         PM PM       PM   W         PM PM                 
   E  S S E  E  E  E  E    E     S S E  E  E  E  E  E  E
-----------------------------|---------------------------|
-----------------------------|---------------------------|
-----------------------------|---------------------------|
---------------3--------<>3--|---------------3-----------|
-----0-0-3--0--1--0--3-------|--0-0-3--2--0--1--0--------|
-----0-0-3--0-----0--3-------|--0-0-3--2--0-----0--------|


                                                      PM PM                    
   S  S S  S S  S  S  S  S  S  S  S  S  S  S  S    S S E  E  E  E  E    E   E
-----------------------------------------------|------------------------------|
-----------------------------------------------|------------------------------|
-------9-12------10-13-------11-14-------12-15-|---------------------<>5~--L--|
--8-11------9-12-------10-13-------11-14-------|---------------3--------------|
-----------------------------------------------|--0-0-3--2--0--1--0-----------|
-----------------------------------------------|--0-0-3--2--0-----0-----------|


         PM PM       PM   W         PM PM                 
   E  S S E  E  E  E  E    E     S S E  E  E  E  E  E  E
-----------------------------|---------------------------|
-----------------------------|---------------------------|
--L--------------------------|---------------------------|
---------------3--------<>3--|---------------3-----------|
-----0-0-3--0--1--0--3-------|--0-0-3--2--0--1--0--------|
-----0-0-3--0-----0--3-------|--0-0-3--2--0-----0--------|

  S  S S  S S  S  S  S  S  S  S  S  S  S  S  S  
-----------------------------------------------|
-----------------------------------------------|
-------9-12------10-13-------11-14-------12-15-|
--8-11------9-12-------10-13-------11-14-------|
-----------------------------------------------|
-----------------------------------------------|


                                                     PM                 PM PM  
    S  S  S  S  S  S  S  S  S  S  S  S  S  S  S  S    E  E  E  E  E  S S E  E
--------------------------------------------------|---------------------------|
--------------------------------------------------|---------------------------|
--------13-16-------14-17-------15-18-------16-19-|---------------------------|
--12-15-------13-16-------14-17-------15-18-------|---------------------------|
--------------------------------------------------|--1--0--L--L--L--0-0-1--3--|
--------------------------------------------------|--1--0--L--L--L--0-0-1--3--|


  PM                         PM                 PM PM  
   E  E  E  E  E  E  E  E     E  E  E  E  E  S S E  E
--------------------------|---------------------------|
--------------------------|---------------------------|
--------------------------|---------------------------|
--------------------------|---------------------------|
--1--0--L--L--L--L--L--L--|--1--0--L--L--L--0-0-1--3--|
--1--0--L--L--L--L--L--L--|--1--0--L--L--L--0-0-1--3--|


  PM                                                   
   E  E  E  E  E  E  E  E     E  E  E  E  E  S S E  E
--------------------------|---------------------------|
--------------------------|---------------------------|
--------------------------|---------------------------|
--------------------------|---------------------------|
--1--0--L--L--L--L--L--L--|--1--0-----------0-0-1--3--|
--1--0--L--L--L--L--L--L--|--1--0-----------0-0-1--3--|

   E  E  E  E  E  E  E  E     E  E  E  E  E  S S E  E
--------------------------|---------------------------|
--------------------------|---------------------------|
--------------------------|---------------------------|
--------------------------|---------------------------|
--1--0--------------------|--1--0-----------0-0-1--3--|
--1--0--------------------|--1--0-----------0-0-1--3--|

  |-3-|   |--3-|   |-3-|   |-3-|                                        
   S S S S S  S S S S S S S S S S S S S S S    E  E  E  E  E  S S E  E
-------------------------------------------|---------------------------|
-------------------------------------------|---------------------------|
-------------------------------------------|---------------------------|
-------------------------------------------|---------------------------|
--5-8-5---7-10-7---5-8-5---4-7-4---1-4-1-L-|--1--0-----------0-0-1--3--|
--------0--------0-------0-------0---------|--1--0-----------0-0-1--3--|

   E  E  E  E  E  E  E  E     E  E  E  E  E  S S E  E
--------------------------|---------------------------|
--------------------------|---------------------------|
--------------------------|---------------------------|
--------------------------|---------------------------|
--1--0--------------------|--1--0-----------0-0-1--3--|
--1--0--------------------|--1--0-----------0-0-1--3--|

   E  S S S S S S S S S S S S S S    E  E  E  E  E  S S E  E
---------------------------------|---------------------------|
---------------------------------|---------------------------|
---------------------------------|---------------------------|
---------------------------------|---------------------------|
--1------------------------------|--1--0-----------0-0-1--3--|
--1--0-0---0-0---0-0-0-0-0-0-0-0-|--1--0-----------0-0-1--3--|

   E  E  E  E  E  E  E  E     E  E  E  E  E  S S E  E
--------------------------|---------------------------|
--------------------------|---------------------------|
--------------------------|---------------------------|
--------------------------|---------------------------|
--1--0--------------------|--1--0-----------0-0-1--3--|
--1--0--------------------|--1--0-----------0-0-1--3--|

  |-3-|   |--3-|   |-3-|   |-3-|                                        
   S S S S S  S S S S S S S S S S S S S S S    E  E  E  E  E  S S E  E
-------------------------------------------|---------------------------|
-------------------------------------------|---------------------------|
-------------------------------------------|---------------------------|
-------------------------------------------|---------------------------|
--5-8-5---7-10-7---5-8-5---4-7-4---1-4-1-L-|--1--0-----------0-0-1--3--|
--------0--------0-------0-------0---------|--1--0-----------0-0-1--3--|

   E  E  E  E  E  E  E  E     E  E  E  E  E  S S E  E
--------------------------|---------------------------|
--------------------------|---------------------------|
--------------------------|---------------------------|
--------------------------|---------------------------|
--1--0--------------------|--1--0-----------0-0-1--3--|
--1--0--------------------|--1--0-----------0-0-1--3--|

   E  S S S S S S S S S S S S S S    E  E  E  E  E  E  E  E
---------------------------------|--------------------------|
---------------------------------|--------------------------|
---------------------------------|--------------------------|
---------------------------------|--------------------------|
--1------------------------------|--------5--8--------5--8--|
--1--0-0---0-0---0-0-0-----------|--0--0--------0--0--------|

   E  E  E  E  E  E  E  E     E  E  E   E  E  E  E   E
--------------------------|----------------------------|
--------------------------|----------------------------|
--------------------------|----------------------------|
--------------------------|----------------------------|
--------5--8--------5--8--|--------7--10--------7--10--|
--0--0--------0--0--------|--0--0---------0--0---------|

   E  E  E  E  E  E  E  E     E  E  E  E  E  E  E  E
--------------------------|--------------------------|
--------------------------|--------------------------|
--------------------------|--------------------------|
--------------------------|--------------------------|
--------4--7--------4--7--|--------5--8--------5--8--|
--0--0--------0--0--------|--0--0--------0--0--------|

   E  E  E  E  E  E  E  E     E  E  E   E  E  E  E   E
--------------------------|----------------------------|
--------------------------|----------------------------|
--------------------------|----------------------------|
--------------------------|----------------------------|
--------5--8--------5--8--|--------7--10--------7--10--|
--0--0--------0--0--------|--0--0---------0--0---------|

   E  E  E  E  E  E  E  E     E  E  E  E  E  E  E  E
--------------------------|--------------------------|
--------------------------|--------------------------|
--------------------------|--------------------------|
--------------------------|--------3--7--------3--7--|
--------4--7--------4--7--|--------------------------|
--0--0--------0--0--------|--0--0--------0--0--------|

   E  E  E  E  E  E  E  E     E  E  E  E  E  E  E  E
--------------------------|--------------------------|
--------------------------|--------------------------|
--------------------------|--------------------------|
--------3--7--------3--7--|--------5--8--------5--8--|
--------------------------|--------------------------|
--0--0--------0--0--------|--5--5--------5--5--------|

  E  E  E  E  E  E  E  E     S S S S S S S S S S S S S S S S  
--------------------------|----------------------------------|
--------------------------|----------------------------------|
--------------------------|----------------------------------|
--------2--5--------2--5--|----------------------------------|
--0--0--------0--0--------|--1-1-1-1-1-1-1-1-1-1-1-1-1-1-1-1-|
--------------------------|----------------------------------|

  S S S S S S S S S S S S S S S S    S S S S S S S S S S S S S S S S  
----------------------------------|----------------------------------|
----------------------------------|----------------------------------|
----------------------------------|----------------------------------|
----------------------------------|----------------------------------|
--1-1-1-1-1-1-1-1-1-1-1-1-1-1-1-1-|----------------------------------|
----------------------------------|--5-5-5-5-5-5-5-5-5-5-5-5-5-5-5-5-|

  S S S S S S S S S S S S S S S S    Q    Q    Q    Q       W                 
----------------------------------|----------------------|-------------------|
----------------------------------|----------------------|-------------------|
----------------------------------|----------------------|-------------------|
----------------------------------|----------------------|-------------------|
--0-0-0-0-0-0-0-0-0-0-0-0-0-0-0-0-|--0-------------------|-------------------|
----------------------------------|--0-------------------|-------------------|

  E  E  E  E  E  E  E  E     H        H         
--------------------------|--------------------|
--------------------------|--------------------|
--------------------------|--------------------|
--8--L--L--L--L--L--L--L--|--5--------7--------|
--8--L--L--L--L--L--L--L--|--5--------7--------|
--8--L--L--L--L--L--L--L--|--5--------7--------|

  S S S S S S S S S S S S S S S S    S S S S S S S S S S S S S S S S  
----------------------------------|----------------------------------|
----------------------------------|----------------------------------|
----------------------------------|----------------------------------|
--------------------------8-8-8-8-|--7-7-7-7-5-5-5-5-----------------|
----------5-5-5-5-8-8-8-8---------|------------------8-8-8-8-7-7-7-7-|
--0-0-0-0-------------------------|----------------------------------|

          |--3--|          |--3--|             |--3--|          |--3--|   
   S S S S E  E  E  S S S S E  E  E     S S S S E  E  E  S S S S E  E  E
------------------------------------|------------------------------------|
------------------------------------|------------------------------------|
------------------------------------|------------------------------------|
------------------------------------|------------------------------------|
----------5--7--5----------5--7--5--|----------5--8--5----------4--7--4--|
--8-8-8-8----------8-8-8-8----------|--5-5-5-5----------7-7-7-7----------|

  W                   W                   W                 
-------------------|-------------------|-------------------|
-------------------|-------------------|-------------------|
-------------------|-------------------|-------------------|
-------------------|-------------------|-------------------|
--0----------------|--L----------------|--8----------------|
--0----------------|--L----------------|--8----------------|

  H        H           W                   W                 
--------------------|-------------------|-------------------|
--------------------|-------------------|-------------------|
--------------------|-------------------|-------------------|
--------------------|-------------------|-------------------|
--5--------7--------|--0----------------|--L----------------|
--5--------7--------|--0----------------|--L----------------|

  W                   H        H           W                 
-------------------|--------------------|-------------------|
-------------------|--------------------|-------------------|
-------------------|--------------------|-------------------|
-------------------|--------------------|-------------------|
--8----------------|--5--------7--------|--0----------------|
--8----------------|--5--------7--------|--0----------------|

   W                   S S S S E  E  E  E  E  E     S S E  E  E  S S E  E  E
-------------------|----------------------------|----------------------------|
-------------------|----------------------------|----------------------------|
-------------------|----------------------------|----------------------------|
-------------------|----------------------------|----------------------------|
--L----------------|--8-8-8---------------------|--5-5-5--------7-7-7--------|
--L----------------|--8-8-8---------------------|--5-5-5--------7-7-7--------|

  PM    PM PM    PM    PM    PM    PM PM    PM    PM  
   E  E  E  E  E  E  E  E     E  E  E  E  E  E  E  E
--------------------------|--------------------------|
--------------------------|--------------------------|
--------------------------|--------------------------|
--------------------------|--------------------------|
-----5--------5-----5-----|-----5--------5-----5-----|
--0-----0--0-----0-----0--|--0-----0--0-----0-----0--|

  PM    PM PM    PM    PM    PM    PM PM    PM    PM  
   E  E  E  E  E  E  E  E     E  E  E  E  E  E  E  E
--------------------------|--------------------------|
--------------------------|--------------------------|
--------------------------|--------------------------|
--------------------------|--------------------------|
-----5--------5-----5-----|-----8--------4-----4-----|
--8-----8--8-----8-----8--|--5-----5--7-----7-----7--|

  PM    PM PM    PM    PM    PM    PM PM    PM    PM  
   E  E  E  E  E  E  E  E     E  E  E  E  E  E  E  E
--------------------------|--------------------------|
--------------------------|--------------------------|
--------------------------|--------------------------|
--------------------------|--------------------------|
-----5--------5-----5-----|-----5--------5-----5-----|
--0-----0--0-----0-----0--|--0-----0--0-----0-----0--|


  PM    PM PM    PM    PM    PM    PM PM    PM    PM                         
  E  E  E  E  E  E  E  E     E  E  E  E  E  E  E  E       Q    H.            
--------------------------|--------------------------||---------------------|
--------------------------|--------------------------||---------------------|
--------------------------|--------------------------||*--------------------|
--------------------------|--------------------------||*--------------------|
-----5--------5-----5-----|-----8--------4-----4-----||---0-----------------|
--8-----8--8-----8-----8--|--5-----5--7-----7-----7--||---0-----------------|


                       PM    PM PM    PM    PM    PM    PM PM    PM    PM    
   Q    H.              E  E  E  E  E  E  E  E     E  E  E  E  E  E  E  E
--------------------|--------------------------|---------------------------||
--------------------|--------------------------|---------------------------||
--------------------|--------------------------|--------------------------*||
--------------------|--------------------------|--------------------------*||
--0-----------------|-----5--------5-----5-----|-----8--------4-----4------||
--0-----------------|--8-----8--8-----8-----8--|--5-----5--7-----7-----7---||

                                              PM PM    PM PM        
   |--3--|  |--3--|  |--3--|  |--3--|                               
   E  E  E  E  E  E  E  E  E  E  E  E      E  E  E  E  E  E  Q      
---------------------------------------|---------------------------|
---------------------------------------|---------------------------|
*--------------------------------------|---------------------------|
*--------------------------------------|--10--------8--------7\----|
------------5--5--5--7--7--7--8--8--8--|---------------------------|
---0--0--0-----------------------------|------0--0-----0--0--------|

  |--3--|  |--3--|  |--3--|  |--3--|     |--3--|  |--3--|  |--3--|  |--3--|     
   E  E  E  E  E  E  E  E  E  E  E  E     E  E  E  E  E  E  E  E  E  E  E  E
--------------------------------------|---------------------------------------||
--------------------------------------|---------------------------------------||
--------------------------------------|--------------------------------------*||
--------------------------------------|--------------------------------------*||
-----------5--5--5--7--7--7--8--8--8--|-----------5--5--5--0--0--0--4--4--4---||
--8--8--8-----------------------------|--8--8--8------------------------------||


  PM                                                                          
   E  E  H.              E  E  E  E  E  E  E  E     E  S E  S E  E  S S E  E
---------------------|--------------------------|----------------------------|
---------------------|--------------------------|----------------------------|
---------------------|--------------------------|----------------------------|
---------------------|--------------------------|----------------------------|
--0------------------|--0-----------------------|-----0-0--0-0-----0-0-0-----|
--0------------------|--0-----------------------|-----0-0--0-0-----0-0-0-----|

   E  E  E  E  E  E  E  E     E  S E  S E  E  S S E  E
--------------------------|----------------------------|
--------------------------|----------------------------|
--------------------------|----------------------------|
--------------------------|----------------------------|
--0-----------------------|-----0-0--0-0-----0-0-0-----|
--0-----------------------|-----0-0--0-0-----0-0-0-----|

   E  E  E  E  E  E  E  E     E  S E  S E  E  S S E  E
--------------------------|----------------------------|
--------------------------|----------------------------|
--------------------------|----------------------------|
--------------------------|----------------------------|
--0-----------------------|-----0-0--0-0-----0-0-0-----|
--0-----------------------|-----0-0--0-0-----0-0-0-----|

   E  E  E  E  E  E  E  E     E  S E  S E  E  S S E  E
--------------------------|----------------------------|
--------------------------|----------------------------|
--------------------------|----------------------------|
--------------------------|----------------------------|
--0-----------------------|-----0-0--0-0-----0-0-0-----|
--0-----------------------|-----0-0--0-0-----0-0-0-----|

   E  E  E  E  E  E  E  E     E  S E  S E  E  S S E  E
--------------------------|----------------------------|
--------------------------|----------------------------|
--------------------------|----------------------------|
--------------------------|----------------------------|
--1-----------------------|-----1-1--1-1-----1-1-1-----|
--1-----------------------|-----1-1--1-1-----1-1-1-----|

   E  E  E  E  E  E  E  E     E  S E  S E  E  S S E  E
--------------------------|----------------------------|
--------------------------|----------------------------|
--------------------------|----------------------------|
--------------------------|----------------------------|
--1-----------------------|-----1-1--1-1-----1-1-1-----|
--1-----------------------|-----1-1--1-1-----1-1-1-----|

   E  E  E  E  E  E  E  E     E  S E  S E  E  S S E  E
--------------------------|----------------------------|
--------------------------|----------------------------|
--------------------------|----------------------------|
--------------------------|----------------------------|
--0-----------------------|-----0-0--0-0-----0-0-0-----|
--0-----------------------|-----0-0--0-0-----0-0-0-----|

   E  E  E  E  E  E  E  E     E  S E  S E  E  S S E  E
--------------------------|----------------------------|
--------------------------|----------------------------|
--------------------------|----------------------------|
--------------------------|----------------------------|
--0-----------------------|-----0-0--0-0-----0-0-0-----|
--0-----------------------|-----0-0--0-0-----0-0-0-----|

  |--3--|  |--3--|  |--3--|  |--3--|     |--3--|  |--3--|  |--3--|           
  E  E  E  E  E  E  E  E  E  E  E  E     E  E  E  E  E  E  E  E  E    Q      
--------------------------------------|-------------------------------------|
--------------------------------------|-------------------------------------|
--------------------------------------|-------------------------------------|
--------------------4--------5--------|--8--------7--------5--------<>7~----|
-----------5--------------------------|-------------------------------------|
--0--0--0-----0--0-----0--0-----0--0--|-----0--0-----0--0-----0--0----------|

  |--3--|  |--3--|  |--3--|  |--3--|      |--3--|  |--3--|  |--3--|  |--3--|   
   E  E  E  E  E  E  E  E  E  E  E  E      E  E  E  E  E  E  E  E  E  E  E  E
--------------------------------------|---------------------------------------|
--------------------------------------|---------------------------------------|
--------------------------------------|--10--7-----7--------9--6-----6--------|
--------------------4--------5--L--L--|---------9-----9--6--------8-----8--5--|
-----------5--------------------------|---------------------------------------|
--0--0--0-----0--0-----0--0-----------|---------------------------------------|

  |--3--|  |--3--|  |--3--|  |--3--|     |--3--|  |--3--|  |--3--|           
  E  E  E  E  E  E  E  E  E  E  E  E     E  E  E  E  E  E  E  E  E    Q      
--------------------------------------|-------------------------------------|
--------------------------------------|-------------------------------------|
--------------------------------------|-------------------------------------|
--------------------4--------5--------|--8--------7--------5--------<>7~----|
-----------5--------------------------|-------------------------------------|
--0--0--0-----0--0-----0--0-----0--0--|-----0--0-----0--0-----0--0----------|

  |--3--|  |--3--|  |--3--|  |--3--|      |--3--|  |--3--|  |--3--|  |--3--|   
   E  E  E  E  E  E  E  E  E  E  E  E      E  E  E  E  E  E  E  E  E  E  E  E
--------------------------------------|---------------------------------------|
--------------------------------------|---------------------------------------|
--------------------------------------|--10--7-----7--------9--6-----6--------|
--------------------4--------5--L--L--|---------9-----9--6--------8-----8--5--|
-----------5--------------------------|---------------------------------------|
--0--0--0-----0--0-----0--0-----------|---------------------------------------|

   E  E  E  E  E  E  E  E
--------------------------|-----||
--------------------------|-----||
--------------------------|-----||
--------------------------|-----||
--0-----------------------|-----||
--0-----------------------|-----||

Duration Legend
---------------
W - whole
H - half
Q - quarter
E|- 8th
S - 16th
T - 32nd
X - 64th
. - note dotted
|-n-|  - n-tuplets

Tablature Legend
----------------
L - tied note
x - dead note
G|- grace note
(n) - ghost note
> - accentuded note
NH - natural harmonic
AH - artificial harmonic
TH - tapped harmonic
SH - semi harmonic
PH - pitch harmonic
h - hammer on
p - pull off
B|- bend
br - bendRelease
pb - preBend
pbr - preBendRelease
brb - bendReleaseBend
\n/ - tremolo bar dip
\n - tremolo bar dive
-/n - tremolo bar Release up
/n\ - tremolo bar inverted dip
/n - tremolo bar return
-\n - tremolo bar Release down
S - shift slide
s - legato slide
/ -  slide into from below or out of upwards
\ -  slide into from above or out of downwards
~ - vibrato
W - wide vibrato
tr - trill
TP - tremolo picking
T - tapping
S - slap
P - pop
< - fade in
^ - brush up
Composición de Bring Me the Horizon / Oliver Sykes
Colaboración y revisión:
  • Joao Alves
35 vistas
    • ½ Tono
    • A
    • Bb
    • B
    • C
    • Db
    • D
    • Eb
    • E
    • F
    • F#
    • G
    • Ab
  • Agregar a la lista

    0 comentarios

    Ver todos los comentarios
    00:00 / 00:00
    Outros vídeos desta música
    Repetir Calidad Automático
    Outros vídeos desta música
    00:00 / 00:00
    Automático
    OK