Cifra Club

Shadow Moses

Bring Me The Horizon

Tablatura: Principal (guitarra)
tono: Dm
Afinação -Drop A#

Introdução

-------------------------------------|
-------------------------------------|
-------------------------------------|
--0---8--5----8----5--7--------------| x2
--0---8--5----8----5--7--------------|
--0---8--5----8----5--7--------------|

---------------------------------|
---------------------------------|
---------------------------------|
---------------------------------|
---------------------------------|
--00-00-0-000000-00-00-0---------|

Pré-Verso

-------------------------------------------------------------------|
-------------------------------------------------------------------|
-------------------------------------------------------------------|
--0-0-0--00-00-00--00000--00-00-00--1-0-3-00-00-00----0000--00-00--|
--0-0-0--00-00-00--00000--00-00-00--1-0-3-00-00-00----0000--00-00--|
--0-0-0--00-00-00--00000--00-00-00--1-0-3-00-00-00----0000--00-00--|

---------------------------------------------------------|
---------------------------------------------------------|
---------------------------------------------------------|
--0-0-0--00-00-00--00000--00-00-00--1-0-1-3-1-0-4-3-0-1--|
--0-0-0--00-00-00--00000--00-00-00--1-0-1-3-1-0-4-3-0-1--|
--0-0-0--00-00-00--00000--00-00-00--1-0-1-3-1-0-4-3-0-1--|

Verso

----------------------------------------------|
----------------------------------------------|
----------------------------------------------|
---0-0-0--0-1-0-4-0-1--0-0-0--0-1-0-4-0-3/13--|
---0-0-0--0-1-0-4-0-1--0-0-0--0-1-0-4-0-3/13--|
---0-0-0--0-1-0-4-0-1--0-0-0--0-1-0-4-0-3/13--|
                                               x2
----------------------------------------------|
----------------------------------------------|
----------------------------------------------|
--0-0-0--0-1-0-4-0-1--0-1-0-3-1-0-4-3-0-1-----|
--0-0-0--0-1-0-4-0-1--0-1-0-3-1-0-4-3-0-1-----|
--0-0-0--0-1-0-4-0-1--0-1-0-3-1-0-4-3-0-1-----|

Breakdown

----------------------------------------------------------------|
----------------------------------------------------------------|
----------------------------------------------------------------|
----000--00-00-00------000-00-00-00-----000-00-00--1-1-1--4-4-4-|
-5*-000--00-00-00--5*--000-00-00-00-5*--000-00-00--1-1-1--4-4-4-|
----000--00-00-00------000-00-00-00-----000-00-00--1-1-1--4-4-4-|

------------------------------------------------------------------|
------------------------------------------------------------------|
------------------------------------------------------------------|
----000--00-00-00------000-00-00-00-----000-00-00-00--------------|
-5*-000--00-00-00--5*--000-00-00-00-5*--000-00-00-00--------------|
----000--00-00-00------000-00-00-00-----000-00-00-00--------------|

Pre Chorus

--------0------------0----------|
------3---3--------3---3--------|
----3-------3----2-------2------|
--------------------------------|
--1-----------0-----------------|
--------------------------------|

Chorus

Rhythm

-------------------------------------|
-------------------------------------|
-------------------------------------|
--0---8--5----8----5--7--------------| x4
--0---8--5----8----5--7--------------|
--0---8--5----8----5--7--------------|

Lead

--------8----------------5-----------3-----|
----6-----6-----------6----6-----3-----3---|
--7---7-----7--x6---7---7----7-5---5-----5-|
-------------------------------------------| x4
-------------------------------------------|
-------------------------------------------|

-------|
-------|
-------|
-00000-
-00000-
-00000-

Breakdown 2

---------------------------------------------------------------|
---------------------------------------------------------------|
---------------------------------------------------------------|
--1-0-3-00-00-00----000-00-00--0-0-0-00-00-00--00000-00-00-00--|
--1-0-3-00-00-00----000-00-00--0-0-0-00-00-00--00000-00-00-00--|
--1-0-3-00-00-00----000-00-00--0-0-0-00-00-00--00000-00-00-00--|

-----------------------|
-----------------------|
-----------------------|
--1-0-1-3-1-0-4-3-0-1--|
--1-0-1-3-1-0-4-3-0-1--|
--1-0-1-3-1-0-4-3-0-1--|

----------------------------------------------|
----------------------------------------------|
----------------------------------------------|
---0-0-0--0-1-0-4-0-1--0-0-0--0-1-0-4-0-3/13--| x4
---0-0-0--0-1-0-4-0-1--0-0-0--0-1-0-4-0-3/13--|
---0-0-0--0-1-0-4-0-1--0-0-0--0-1-0-4-0-3/13--|



Chorus

Rhythm

-------------------------------------|
-------------------------------------|
-------------------------------------|
--0---8--8----8----5--7--------------| x4
--0---8--8----8----5--7--------------|
--0---8--5----8----5--7--------------|

Lead

--------8----------------5-----------3-----|
----6-----6-----------6----6-----3-----3---|
--7---7-----7--x6---7---7----7-5---5-----5-|
-------------------------------------------| x8
-------------------------------------------|
-------------------------------------------|

Ending

-----------------------------------------------------------------|
-----------------------------------------------------------------|
-----------------------------------------------------------------|
----000--00-00-00------000-00-00-00-----000-00-00--1-1-1--4-4-4--| x2
-5*-000--00-00-00--5*--000-00-00-00-5*--000-00-00--1-1-1--4-4-4--|
----000--00-00-00------000-00-00-00-----000-00-00--1-1-1--4-4-4--|
Composição de Jordan Fish / Lee Malia / Oliver Skyes
Colaboración y revision:
  • iguinhox Chaves
3.007 reproducciones
    • ½ Tono
    • Am
    • Bbm
    • Bm
    • Cm
    • C#m
    • Dm
    • Ebm
    • Em
    • Fm
    • F#m
    • Gm
    • G#m
  • Adicionar à lista

    0 comentarios

    Ver todos os comentários

    ¿Conseguiste tocar?

    5 Tocaram 1 Ainda não

    Grave um vídeo tocando Shadow Moses e nos envie!

    00:00 / 00:00
    outros vídeos desta música
    repetir qualidade Automático
    Outros vídeos desta música
    00:00 / 00:00
    Automático
    OK