Cifra Club

Sorrow

Broder Daniel

Cifrado: Principal (guitarra y guitarra eléctrica)
Selo Cifra Club: esta cifra foi revisada para atender aos critérios oficiais da nossa Equipe de Qualidade.
tono: Am
    Am          F           C           G
E|-------------------------------------------------------|
B|--5h6h5---1---5h6h5---1---5h6h5---1---8-8--6-6--5-5--3-|
G|-------------------------------------------------------|
D|-------------------------------------------------------|
A|-------------------------------------------------------|
E|-------------------------------------------------------|


[Fig 2]

    Am      F          C         G
E|-----------------------------------------|
B|-----------------------------------------|
G|--4-5-7-5-4h5h4--2---4-5--7-5--9-7-10-9--|
D|-----------------------------------------|
A|-----------------------------------------|
E|-----------------------------------------|


[Intro]

[Fig 1] (2x)
[Fig 2] (2x)


Am         F     C      G
there is a place I call sorrow
    Am         F     C      G
and there is a place I call sorrow

Fig 1 (2x)
Fig 2 (2x)

Am    F       C       G
loneliness is so hard to me
    Am    F       C       G
and loneliness is so hard to me
Am        F       C
  it's so hard to me
            G
and it's so hard to me

[Fig 1] (2x)
[Fig 2] (2x)

yeah

E|--7-7-7--5-5-5--3-3-3------------------------------------------|
B|----------------------7-7-7--5-5-5--3-3-3--5h6h5--3--7h8h7--5--|
G|---------------------------------------------------------------|
D|---------------------------------------------------------------|
A|---------------------------------------------------------------|
E|---------------------------------------------------------------|

  Am      F      C     G
I carry a weight on my back
  Am      F      C     G      Am(*) F
I carry a weight on my back
          C             G
I have to carry all the weight
          Am             F
and how I need a helping hand
      C       G       Am      F
cause I carry all the weight
  C     G       Am      F     C
I carry all the weight
   G           Am
oh no oh no oh no
Otros videos de esta canción
    6 exhibiciones
      • ½ Tono
      • Am
      • Bbm
      • Bm
      • Cm
      • C#m
      • Dm
      • Ebm
      • Em
      • Fm
      • F#m
      • Gm
      • G#m
    • Agregar a la lista

    Afinação da cifra

    Afinador online

      Ops (: Contenido disponible solo en portugués.
      OK