Cifra Club

Underground

Broder Daniel

Cifrado: Principal (guitarra y guitarra eléctrica)
Selo Cifra Club: esta cifra foi revisada para atender aos critérios oficiais da nossa Equipe de Qualidade.
tono: D
E|--------------------------------------------------|
B|-10-12-12-12-12-12-12-12-10-12-12-12-12-12-12-12--|
G|--------------------------------------------------|
D|--------------------------------------------------|
A|--------------------------------------------------|
E|--------------------------------------------------|

E|--------------------------------------------------|
B|-10-13-13-13-13-13-13-13-10-13-13-13-13-13-13-13--|
G|--------------------------------------------------|
D|--------------------------------------------------|
A|--------------------------------------------------|
E|--------------------------------------------------|

E|--------------------------------------------------|
B|-10-12-12-12-12-12-12-12-10-12-12-12-12-12-12-12--|
G|--------------------------------------------------|
D|--------------------------------------------------|
A|--------------------------------------------------|
E|--------------------------------------------------|

E|--------------------------------------------------|
B|-10-13-13-13-12-12-10-10-8-8-8-8-8-8-8------------|
G|--------------------------------------------------|
D|--------------------------------------------------|
A|--------------------------------------------------|
E|--------------------------------------------------|


[RIFF 2.1]

E|--------------------------------------------------|
B|-12-12-10-10-12-12-10-10-12-12-10-10-12-12-10-10--|
G|--------------------------------------------------|
D|--------------------------------------------------|
A|--------------------------------------------------|
E|--------------------------------------------------|


[RIFF 2.2]

E|--------------------------------------------------|
B|-12-12-12-12-12-12-12-12-10h----------------------|
G|--------------------------------------------------|
D|--------------------------------------------------|
A|--------------------------------------------------|
E|--------------------------------------------------|


[RIFF 3]

E|-9-9--7--5----------9-9--7--5--10-10-10-10-10-10--|
B|------------7-7--5--------------------------------|
G|--------------------------------------------------|
D|--------------------------------------------------|
A|--------------------------------------------------|
E|--------------------------------------------------|

************************************

| h  Hammer-on

************************************

[iNTRO] x2

[RIFF 1]

[iNTRO x2 again]

We look so good
.......... We don't care what you say about us

[RIFF 2.1]
[RIFF 2.2]
        [x2]


[iNTRO again]


[iNTRO x2 again]
We're brother daniel
......
We look so good together

[RIFF 2.1]
[RIFF 2.2]
        [x2]

[RIFF 3]

[iNTRO to fade]
We are underground
......We don't care what you say about us
Otros videos de esta canción
    7 exhibiciones
      • ½ Tono
      • A
      • Bb
      • B
      • C
      • Db
      • D
      • Eb
      • E
      • F
      • F#
      • G
      • Ab
    • Agregar a la lista

    Afinação da cifra

    Afinador online

      Ops (: Contenido disponible solo en portugués.
      OK