Cifra Club

You Bury Me

Broder Daniel

Cifrado: Principal (guitarra y guitarra eléctrica)
Selo Cifra Club: esta cifra foi revisada para atender aos critérios oficiais da nossa Equipe de Qualidade.
tono: G
E|----------------------------------------------------------|
B|--2-2-2-2h4/6-2-/7-6-4-2-2--2-2-2-2h4/6-2-/7-6-4-2-2-2----|
G|----------------------------------------------------------|
D|----------------------------------------------------------| x2
A|----------------------------------------------------------|
E|----------------------------------------------------------|
    
    Em         G            C     C/B  Am            G     C   Am          G    
E|---------------------------------------------------------------------------|
B|--2-2h4/6-2-/7-6-4-2-2-2--2-2h4/6-2-/7-6-4--4-6-7-/9--\2----/7-7-7-6-7-6-2-|
G|---------------------------------------------------------3-----------------|
D|---------------------------------------------------------------------------|
A|---------------------------------------------------------------------------|
E|---------------------------------------------------------------------------|

Em  G 
 you 
C   C/B  Am 
you bury me 
G            C 
 oh you, you dig my grave 
C   Am   G 
you bury me 
Em   Bm 
you, you 
Am     D    G 
you destroy me 
Em   Bm 
you, you 
Am     D    G 
you destroy me 

Em G C C/B Am  
G C C Am G 

Em   G 
 you break my heart 
    C     C/B      Am 
you are a heartbreaker 
G            C 
 oh it's you, oh it's true 
C   Am   G 
you bury me 
Em   Bm 
you, you 
Am     D    G 
you destroy me 
Em   Bm 
you, you 
Am     D    G 
you destroy me 

   Em        G         C   C/B  Am
E|----------------------------------------|
B|--11-9-7-6--11-9-7-6--9-7-6-4--9-7-6-4--|
G|----------------------------------------|
D|----------------------------------------|
A|----------------------------------------|
E|----------------------------------------|

    G         C         Am  G 
E|----------------------------------------|
B|--11-9-7-6--11-9-7-6--7-6-2-------------|
G|----------------------------------------|
D|----------------------------------------|
A|----------------------------------------|
E|----------------------------------------|

no, no 

Em G C C/B Am  
G C C Am G 

Em    G 
la la la la la 
C C/B Am 
la la la 
G               C 
 oh you send me to my grave 
C Am G 
aaaaah 
Em   Bm 
aaaaaaaah 
Am   D    G 
aaah aaaaaaah 
Em   Bm 
aaaaaaaah 
Am   D    G 
aaah aaaaaaah 

G    C 
 you bury me 
C   Am   G 
you bury me 
C   Am   G 
you bury me 
C   Am   G 
you bury me


************************************

| h  Hammer-on
| /  Slide up
| \  Slide down
Otros videos de esta canción
    6 exhibiciones
      • ½ Tono
      • A
      • Bb
      • B
      • C
      • Db
      • D
      • Eb
      • E
      • F
      • F#
      • G
      • Ab
    • Agregar a la lista

    Afinação da cifra

    Afinador online

      Ops (: Contenido disponible solo en portugués.
      OK