Cifra Club

Freak

Bruce Dickinson

Cifrado: Principal (guitarra y guitarra eléctrica)
Selo Cifra Club: esta cifra foi revisada para atender aos critérios oficiais da nossa Equipe de Qualidade.
tono: Cm
 Intro
 200 BPM
 4/4
  Gtr I
       PM-|
  H    Q  Q    Q.   Q.   Q    +E  H..          Q.   Q.   Q    +E  H..
E|------------|--------------|---------------|---------------|------------|
B|------------|------7----7--|-(7)-7---------|-10----7----7--|-(7)-7------|
G|------------|-7----7----6--|-(6)-7---------|--9----7----6--|-(6)-7------|
D|------0--0--|-4----7----4--|-(4)-7---------|--7----7----4--|-(4)-7------|
A|------0--0--|-5----5-------|-----5---------|-------5-------|-----5------|
E|------0--0--|--------------|---------------|---------------|------------|

                                                                  PM
   Q.    Q.   Q    +E  H..          Q.    Q.   Q    +E  Q.   +Q   Q
E|----------------|---------------|----------------|------------------| |
B|-10----12----7--|-(7)-7---------|-10----12----7--|-(7)-7----(7)-----| |
G|--9----11----6--|-(6)-7---------|--9----11----6--|-(6)-7----(7)-----| |
D|--7-----9----4--|-(4)-7---------|--7-----9----4--|-(4)-7----(7)--0--| |
A|----------------|-----5---------|----------------|-----5----(5)--0--| |
E|----------------|---------------|----------------|---------------0--| |


   Pre-Verse
    E E E E E E E E   E E E E Q   Q     E E E E E E E E   E E E E Q   Q
||------------------|-----------------|-----------------|-----------------|
||o-----------------|-----------------|-----------------|-----------------|
||------------------|-----------------|-----------------|-----------------|
||--3-0-0-3-0-0-3-0-|-0-3-0-0-6--(6)--|-3-0-0-3-0-0-3-0-|-0-3-0-0-6--(6)--|
||o-3-0-0-3-0-0-3-0-|-0-3-0-0-6--(6)--|-3-0-0-3-0-0-3-0-|-0-3-0-0-6--(6)--|
||--3-0-0-3-0-0-3-0-|-0-3-0-0-6---6---|-3-0-0-3-0-0-3-0-|-0-3-0-0-6---6---|

  E E E E E E E E   E E E E Q   Q     E E E E E E E E   E E E E Q  +Q
E|-----------------|-----------------|-----------------|-------------------| |
B|-----------------|-----------------|-----------------|------------------o| |
G|-----------------|-----------------|-----------------|-------------------| |
D|-3-0-0-3-0-0-3-0-|-0-3-0-0-6--(6)--|-3-0-0-3-0-0-3-0-|-0-0-----7--(7)----| |
A|-3-0-0-3-0-0-3-0-|-0-3-0-0-6--(6)--|-3-0-0-3-0-0-3-0-|-0-0-5-6----------o| |
E|-3-0-0-3-0-0-3-0-|-0-3-0-0-6---6---|-3-0-0-3-0-0-3-0-|-0-0---------------| |


   Verse
    Q  E Q  E Q    +W           Q  E Q  E Q    +W
||---------------|------------|--------------|--------|
||o--------------|------------|--------------|--------|
||---------------|------------|--------------|--------|
||--7--x-5--x-3--|-(3)--------|-3--x-5--x-3--|-(3)----|
||o-8--x-7--x-5--|-(5)--------|-5--x-7--x-5--|-(5)----|
||---------------|------------|--------------|--------|

  Q  E Q  E Q    +W           Q  E Q  E Q    +H     Q  Q
E|--------------|------------|--------------|----------------| |
B|--------------|------------|--------------|---------------o| |
G|--------------|------------|--------------|----------------| |
D|-2--x-3--x-2--|-(2)--------|-3--x-5--x-3--|-(3)----0--2----| |
A|-3--x-5--x-3--|-(3)--------|-5--x-7--x-5--|-(5)----1--3---o| |
E|--------------|------------|--------------|----------------| |


   Chorus
    E E E E E E E E   E E E E Q   Q     E E E E E E E E   E E E E Q   Q
||------------------|-----------------|-----------------|-----------------|
||o-----------------|-----------------|-----------------|-----------------|
||------------------|-----------------|-----------------|-----------------|
||--3-0-0-3-0-0-3-0-|-0-3-0-0-6--(6)--|-3-0-0-3-0-0-3-0-|-0-3-0-0-6--(6)--|
||o-3-0-0-3-0-0-3-0-|-0-3-0-0-6--(6)--|-3-0-0-3-0-0-3-0-|-0-3-0-0-6--(6)--|
||--3-0-0-3-0-0-3-0-|-0-3-0-0-6---6---|-3-0-0-3-0-0-3-0-|-0-3-0-0-6---6---|

  E E E E E E E E   E E E E Q   Q     Q.   Q.   Q    +E  E +Q   Q  Q
E|-----------------|-----------------|--------------|--------------------| |
B|-----------------|-----------------|--------------|-------------------o| |
G|-----------------|-----------------|--------------|--------------------| |
D|-3-0-0-3-0-0-3-0-|-0-3-0-0-6--(6)--|-7----5----3--|-(3)-7-(7)--5--3----| |
A|-3-0-0-3-0-0-3-0-|-0-3-0-0-6--(6)--|-8----7----5--|-(5)-8-(8)--7--5---o| |
E|-3-0-0-3-0-0-3-0-|-0-3-0-0-6---6---|--------------|--------------------| |


   Verse
    Q  E Q  E Q    +W           Q  E Q  E Q    +W
||---------------|------------|--------------|--------|
||o--------------|------------|--------------|--------|
||---------------|------------|--------------|--------|
||--7--x-5--x-3--|-(3)--------|-3--x-5--x-3--|-(3)----|
||o-8--x-7--x-5--|-(5)--------|-5--x-7--x-5--|-(5)----|
||---------------|------------|--------------|--------|


  Q  E Q  E Q    +W           Q  E Q  E Q    +H     Q  Q
E|--------------|------------|--------------|----------------| |
B|--------------|------------|--------------|---------------o| |
G|--------------|------------|--------------|----------------| |
D|-2--x-3--x-2--|-(2)--------|-3--x-5--x-3--|-(3)----0--2----| |
A|-3--x-5--x-3--|-(3)--------|-5--x-7--x-5--|-(5)----1--3---o| |
E|--------------|------------|--------------|----------------| |


 Pre-Chorus
  H    E E E E   +H     E E E E   +W           +H     E E E E
E|--------------|----------------|------------|-----------------|
B|--------------|----------------|------------|-----------------|
G|-2----2-0---3-|-(3)----2-0---5-|-(5)--------|-(5)----2-0---2--|
D|-2--------3-3-|-(3)--------3-5-|-(5)--------|-(5)--------3-2--|
A|-0----------1-|-(1)----------3-|-(3)--------|-(3)----------0--|
E|--------------|----------------|------------|-----------------|

  +H     E E E E   +H     E E E E   +W           +H     E E E E
E|----------------|----------------|------------|-----------------|
B|----------------|----------------|------------|-----------------|
G|-(2)----2-0---3-|-(3)----2-0---5-|-(5)--------|-(5)----2-0---2--|
D|-(2)--------3-3-|-(3)--------3-5-|-(5)--------|-(5)--------3-2--|
A|-(0)----------1-|-(1)----------3-|-(3)--------|-(3)----------0--|
E|----------------|----------------|------------|-----------------|

  +H     E E E E   +H     E E E E   +H..       E   +H     E E E E
E|----------------|----------------|--------------|-----------------|
B|----------------|----------------|--------------|-----------------|
G|-(2)----2-0---3-|-(3)----2-0---7-|-(7)--------5-|-(5)----2-0---2--|
D|-(2)--------3-3-|-(3)--------3-7-|-(7)--------5-|-(5)--------3-2--|
A|-(0)----------1-|-(1)----------5-|-(5)--------3-|-(3)----------0--|
E|----------------|----------------|--------------|-----------------|

  +H     E E E E   +H     E E Q    Q  E E +E  E Q    E E +E  E Q  Q
E|----------------|---------------|-----------------|------------------|
B|----------------|---------------|-----------------|------------------|
G|-(2)----2-0---3-|-(3)----2-0----|-5----5-(5)---5--|---5-(5)---5--5---|
D|-(2)--------3-3-|-(3)--------3--|-5----5-(5)---5--|---5-(5)---5--5---|
A|-(0)----------1-|-(1)-----------|-3--0-3-(3)-0-3--|-0-3-(3)-0-3--3---|
E|----------------|---------------|-----------------|------------------|


   Chorus
    E E E E E E E E   E E E E Q   Q     E E E E E E E E   E E E E Q   Q
||------------------|-----------------|-----------------|-----------------|
||o-----------------|-----------------|-----------------|-----------------|
||------------------|-----------------|-----------------|-----------------|
||--3-0-0-3-0-0-3-0-|-0-3-0-0-6--(6)--|-3-0-0-3-0-0-3-0-|-0-3-0-0-6--(6)--|
||o-3-0-0-3-0-0-3-0-|-0-3-0-0-6--(6)--|-3-0-0-3-0-0-3-0-|-0-3-0-0-6--(6)--|
||--3-0-0-3-0-0-3-0-|-0-3-0-0-6---6---|-3-0-0-3-0-0-3-0-|-0-3-0-0-6---6---|


  E E E E E E E E   E E E E Q   Q     Q.   Q.   Q    +E  E +Q   Q  Q
E|-----------------|-----------------|--------------|--------------------| |
B|-----------------|-----------------|--------------|-------------------o| |
G|-----------------|-----------------|--------------|--------------------| |
D|-3-0-0-3-0-0-3-0-|-0-3-0-0-6--(6)--|-7----5----3--|-(3)-7-(7)--5--3----| |
A|-3-0-0-3-0-0-3-0-|-0-3-0-0-6--(6)--|-8----7----5--|-(5)-8-(8)--7--5---o| |
E|-3-0-0-3-0-0-3-0-|-0-3-0-0-6---6---|--------------|--------------------| |

  Q.   Q.   Q    +E  E +Q   Q  Q    W          +H.      Q
E|--------------|------------------|----------|---------------|
B|--------------|------------------|----------|---------------|
G|--------------|------------------|----------|---------------|
D|-7----5----3--|-(3)-7-(7)--5--3--|-2--------|-(2)-----------|
A|-8----7----5--|-(5)-8-(8)--7--5--|-3--------|-(3)------3/---|
E|--------------|------------------|----------|----------3/---|


   Bridge
    E E +E  E E E E E   +E  E Q  E E Q   3x
||--------------------|------------------||
||o-------------------|-----------------o||
||--------------------|------------------||
||--------------------|------------------||
||o-0-0-(0)-0-3s2-0-0-|-(0)-0-3--0-0-6--o||
||--0-0-(0)-0-3s2-0-0-|-(0)-0-3--0-0-6---||

  E E +E  E E E E E   +E  E Q  E E  Q
E|-------------------|-------------------|
B|-------------------|---------------9\--|
G|-------------------|--------------10\--|
D|-------------------|-------------------|
A|-0-0-(0)-0-3s2-0-0-|-(0)-0-3--0-0--6---|
E|-0-0-(0)-0-3s2-0-0-|-(0)-0-3--0-0--6---|


    E E +E  E E E E E   +E  E Q  E E Q   3x
||--------------------|------------------||
||o-------------------|-----------------o||
||--------------------|------------------||
||--------------------|------------------||
||o-0-0-(0)-0-3s2-0-0-|-(0)-0-3--0-0-6--o||
||--0-0-(0)-0-3s2-0-0-|-(0)-0-3--0-0-6---||


  E E +E  E E E E E   +E  E Q  E E  Q
E|-------------------|-------------------|
B|-------------------|---------------9\--|
G|-------------------|--------------10\--|
D|-------------------|-------------------|
A|-0-0-(0)-0-3s2-0-0-|-(0)-0-3--0-0--6---|
E|-0-0-(0)-0-3s2-0-0-|-(0)-0-3--0-0--6---|


    E E +E  E E E E E   +E  E Q  E E Q   3x
||--------------------|------------------||
||o-------------------|-----------------o||
||--------------------|------------------||
||--------------------|------------------||
||o-0-0-(0)-0-3s2-0-0-|-(0)-0-3--0-0-6--o||
||--0-0-(0)-0-3s2-0-0-|-(0)-0-3--0-0-6---||

  E E +E  E E E E E   +E  E Q  E E  Q
E|-------------------|-------------------|
B|-------------------|---------------9\--|
G|-------------------|--------------10\--|
D|-------------------|-------------------|
A|-0-0-(0)-0-3s2-0-0-|-(0)-0-3--0-0--6---|
E|-0-0-(0)-0-3s2-0-0-|-(0)-0-3--0-0--6---|

  E E E E E E E E   +E  E +E  E +H
E|-----------------|--------------------|
B|-----------------|--------------------|
G|---------------7-|-(7)-5-(5)-3-(3)----|
D|-3-3-3-3-3s2-0-7-|-(7)-5-(5)-3-(3)----|
A|-3-3-3-3-3s2-0-5-|-(5)-3-(3)-1-(1)----|
E|-3-3-3-3-3s2-0---|--------------------|

  E E E E E E E E   +E  E +E  E +Q   Q
E|-----------------|----------------------|
B|-----------------|----------------------|
G|-----------------|----------------------|
D|-0-3-0-0-3s2-0-3-|-(3)-5-(5)-7-(7)--5---|
A|-0-3-0-0-3s2-0-5-|-(5)-7-(7)-8-(8)--7---|
E|-0-3-0-0-3s2-0---|----------------------|


   Interlude
    E    E +E  E E E E E   +E     E Q  E E  Q
||-----------------------|----------------------|
||o----------------------|----------------------|
||-----------------------|----------------------|
||-----------------------|-----------------<5>--|
||o-0----0-(0)-0-3s2-0-0-|-(0)----0-3--0-0------|
||--0----0-(0)-0-3s2-0-0-|-(0)----0-3--0-0------|
|
|   Gtr II
|   W                      +W
||-----------------------|----------------------|
||o----------------------|----------------------|
||-----------------------|----------------------|
||--3tr4-----------------|-(3tr4)---------------|
||o----------------------|----------------------|
||-----------------------|----------------------|


   E     E +E  E E E E E   +E    E Q  E    E  Q
E|------------------------|------------------------|
B|------------------------|------------------------|
G|------------------------|------------------------|
D|------------------------|-------------------<5>--|
A|--0-----0-(0)-0-3s2-0-0-|-(0)---0-3--0----0------|
E|--0-----0-(0)-0-3s2-0-0-|-(0)---0-3--0----0------|
|
| +W                        H         H
E|------------------------|------------------------|
B|------------------------|------------------------|
G|------------------------|------------------------|
D|-(3tr4)-----------------|--5tr6------6tr7--------|
A|------------------------|------------------------|
E|------------------------|------------------------|


  E    E +E  E E E E E   +E     E Q  E E  Q
E|----------------------|----------------------|
B|----------------------|----------------------|
G|----------------------|----------------------|
D|----------------------|-----------------<5>--|
A|-0----0-(0)-0-3s2-0-0-|-(0)----0-3--0-0------|
E|-0----0-(0)-0-3s2-0-0-|-(0)----0-3--0-0------|
|
| W                      +W
E|----------------------|----------------------|
B|----------------------|----------------------|
G|----------------------|----------------------|
D|----------------------|----------------------|
A|-4tr5-----------------|-(4tr5)---------------|
E|----------------------|----------------------|


   E     E +E  E E E E E   +E     E Q  E E  Q
E|------------------------|------------------------| |
B|------------------------|-----------------------o| |
G|------------------------|------------------------| |
D|------------------------|-----------------<5>----| |
A|--0-----0-(0)-0-3s2-0-0-|-(0)----0-3--0-0-------o| |
E|--0-----0-(0)-0-3s2-0-0-|-(0)----0-3--0-0--------| |
|
| +W                       +W
E|------------------------|------------------------| |
B|------------------------|-----------------------o| |
G|------------------------|------------------------| |
D|------------------------|------------------------| |
A|-(4tr5)-----------------|-(4tr5)----------------o| |
E|------------------------|------------------------| |


 Guitar Solo
   E     E E E E E E E    +E  E  +E  E  +H
E|----------------------|-------------------------------|
B|----------------------|-------------------------------|
G|--------------------7-|--(7)-5--(5)-3--(3)------------|
D|--3-----3-3-3-3s2-0-7-|--(7)-5--(5)-3--(3)------------|
A|--3-----3-3-3-3s2-0-5-|--(5)-3--(3)-1--(1)------------|
E|--3-----3-3-3-3s2-0---|-------------------------------|
|
|  W                      +Q     +Q     +Q        +Q
E|----------------------|-------------------------------|
B|-20b22================| =(20)---(20)r==(20)b22===(20)r=|
G|----------------------|-------------------------------|
D|----------------------|-------------------------------|
A|----------------------|-------------------------------|
E|----------------------|-------------------------------|

    E      E   E     E   E     E  E E   +E  E +E  E +H
E|-------------------------------------|--------------------|
B|-------------------------------------|--------------------|
G|-------------------------------------|--------------------|
D|---0------3---0-----0---3s====2--0-3-|-(3)-5-(5)-7-(7)----|
A|---0------3---0-----0---3s====2--0-5-|-(5)-7-(7)-8-(8)----|
E|---0------3---0-----0---3s====2--0---|--------------------|
|
|
|  +Q         +Q        +Q        Q      W
E|-------------------------------------|--------------------|
B|-(20)pb22r==(20)b22r==(20)b22r==18---|--------------------|
G|-------------------------------------|-19~~~--------------|
D|-------------------------------------|--------------------|
A|-------------------------------------|--------------------|
E|-------------------------------------|--------------------|

  E   E E       E E E       E E   +E    E    +E      E    +H
E|-------------------------------|--------------------------------------------------|
B|-------------------------------|--------------------------------------------------|
G|-----------------------------7-|-(7)---5----(5)-----3----(3)----------------------|
D|-3---3-3-------3-3s2-------0-7-|-(7)---5----(5)-----3----(3)----------------------|
A|-3---3-3-------3-3s2-------0-5-|-(5)---3----(3)-----1----(1)----------------------|
E|-3---3-3-------3-3s2-------0---|--------------------------------------------------|
|
| |---------3----------|
| H        H           H           E.      S  S   S  S  S  S   S  S  S  S  S  S  S
E|-------------------------------|---------13-12--10--------------------------------|
B|---------17----------18--------|-18----------------13-10-13--10-13-10-13-10----10-|
G|-6b8-----16b18-------19b21-----|-19b21--------------------------------------12----|
D|-------------------------------|--------------------------------------------------|
A|-------------------------------|--------------------------------------------------|
E|-------------------------------|--------------------------------------------------|

   E     E     E     E     E     E     E  E   +E      E    +E      E    +Q    Q
E|-------------------------------------------|--------------------------------------|
B|-------------------------------------------|--------------------------------------|
G|-------------------------------------------|--------------------------------------|
D|--0-----3-----0-----0-----3s====2-----0--3-|-(3)-----5----(5)-----7----(7)---5----|
A|--0-----3-----0-----0-----3s====2-----0--5-|-(5)-----7----(7)-----8----(8)---7----|
E|--0-----3-----0-----0-----3s====2-----0----|--------------------------------------|
|
|  S  S  S  S  S  S  S  S  S  S  S  S  E  E    S   S  S  S  S   S  S  S  Q    Q
E|-------------------------------------------|--------------------------------------|
B|-13-10-13-10-13-10-13-10-13-10-13-10----10-|-13--10-13-10-13--10-13-10-13\--------|
G|-------------------------------------12----|--------------------------------------|
D|-------------------------------------------|--------------------------------17----|
A|-------------------------------------------|--------------------------------------|
E|-------------------------------------------|--------------------------------------|


 Breakdown
  Cm
   W               +W                       +W           +W
E|----------------|------------------------|------------|--------|
B|----------------|------------------------|------------|--------|
G|----------------|------------------------|------------|--------|
D|--3-------------|-(3)--------------------|-(3)--------|-(3)----|
A|--5-------------|-(5)--------------------|-(5)--------|-(5)----|
E|--0-------------|-(0)--------------------|-(0)--------|-(0)----|
|
|  H     +H         H     S S S S S S S S    W            W
E|----------------|------------------------|------------|--------|
B|----------------|------------------------|------------|--------|
G|----------------|------------------------|------------|--------|
D|-15----(15)\----|--------xsxsxsxsxsxsxsxs| ==x---------|--------|
A|----------------|--------xsxsxsxsxsxsxsxs| ==x---------|--------|
E|----------------|--------xsxsxsxsxsxsxsxs| ==x---------|--------|

  +W           +W           +W           +W
E|------------|------------|------------|--------|
B|------------|------------|------------|--------|
G|------------|------------|------------|--------|
D|-(3)--------|-(3)--------|-(3)--------|-(3)----|
A|-(5)--------|-(5)--------|-(5)--------|-(5)----|
E|-(0)--------|-(0)--------|-(0)--------|-(0)----|


   Chorus
    E E E E E E E E   E E E E Q   Q     E E E E E E E E   E E E E Q   Q
||------------------|-----------------|-----------------|-----------------|
||o-----------------|-----------------|-----------------|-----------------|
||------------------|-----------------|-----------------|-----------------|
||--3-0-0-3-0-0-3-0-|-0-3-0-0-6--(6)--|-3-0-0-3-0-0-3-0-|-0-3-0-0-6--(6)--|
||o-3-0-0-3-0-0-3-0-|-0-3-0-0-6--(6)--|-3-0-0-3-0-0-3-0-|-0-3-0-0-6--(6)--|
||--3-0-0-3-0-0-3-0-|-0-3-0-0-6---6---|-3-0-0-3-0-0-3-0-|-0-3-0-0-6---6---|

  E E E E E E E E   E E E E Q   Q     Q.   Q.   Q    +E  E +Q   Q  Q    4x
E|-----------------|-----------------|--------------|--------------------| |
B|-----------------|-----------------|--------------|-------------------o| |
G|-----------------|-----------------|--------------|--------------------| |
D|-3-0-0-3-0-0-3-0-|-0-3-0-0-6--(6)--|-7----5----3--|-(3)-7-(7)--5--3----| |
A|-3-0-0-3-0-0-3-0-|-0-3-0-0-6--(6)--|-8----7----5--|-(5)-8-(8)--7--5---o| |
E|-3-0-0-3-0-0-3-0-|-0-3-0-0-6---6---|--------------|--------------------| |


 Outro
  Q.   Q.   Q    +E  E +Q   Q  Q    W          +W
E|--------------|------------------|----------|--------|
B|--------------|------------------|----------|--------|
G|--------------|------------------|----------|--------|
D|-7----5----3--|-(3)-7-(7)--5--3--|-2--------|-(2)----|
A|-8----7----5--|-(5)-8-(8)--7--5--|-3--------|-(3)----|
E|--------------|------------------|----------|--------|
Otros videos de esta canción
    17 exhibiciones
      • ½ Tono
      • Am
      • Bbm
      • Bm
      • Cm
      • C#m
      • Dm
      • Ebm
      • Em
      • Fm
      • F#m
      • Gm
      • G#m
    • Agregar a la lista

    Afinação da cifra

    Afinador online

      Ops (: Contenido disponible solo en portugués.
      OK