Cifra Club

Machine Men

Bruce Dickinson

Cifrado: Principal (guitarra y guitarra eléctrica)
tono: F
Note: This song uses Drop-D Tuning!

   Intro:                                        
E||--------------------------------------|
B||--------------------------------------|
G||-----2-3p2---2------------------------|
D||---0-------5---3-5-2-3---2------------|
A||---0-------------------5---3-5-1-3----|
D||---0-------------------------------0--|
 || Gtr.1     Play 3 times
 ||
E||--------------------------------------|
B||--------------------------------------|
G||--------------------------------------|
D||---0----------------------------------|
A||---0----------------------------------|
D||---0----------------------------------|
    Gtr. 2


|--------------------------------------|
|--------------------------------------|
|-----2-3p2---2------------------------|
|---2-------5---3-5-2-3---2------------|
|---2-------------------5---3-5-1-3----|
|---0-------------------------------0--|
| Gtr. 1 Then 2x
|--------------------------------------|
|-----5-6p5---5------------------------|
|---2-------7---5-7---5----------------|
|---2---------------8---7-8-5-7---5----|
|---0---------------------------8---7--|
|--------------------------------------|
  Gtr. 2

  Vers                                                           
|------------------------------|------------------------------|
|------------------------------|------------------------------|
|------------------------------|------------------------------|
|--0--0-0-0--0-0-0--0-0-2h3-3--|--0--0-0-0--0-0-3h5-5--2h3-3--|
|--0--0-0-0--0-0-0--0-0-2h3-3--|--0--0-0-0--0-0-3h5-5--2h3-3--|
|--0--0-0-0--0-0-0--0-0-2h3-3--|--0--0-0-0--0-0-3h5-5--2h3-3--|


                                                              
|------------------------------|------------------------------|
|------------------------------|------------------------------|
|------------------------------|------------------------------|
|--0--0-0-0--0-0-0--0-0-2h3-3--|--0--0-0-0--0-0-5h7-7--3h5-5--|
|--0--0-0-0--0-0-0--0-0-2h3-3--|--0--0-0-0--0-0-5h7-7--3h5-5--|
|--0--0-0-0--0-0-0--0-0-2h3-3--|--0--0-0-0--0-0-5h7-7--3h5-5--|


Pre Chorus:

Guitar 1
|-------------------|---------------------|
|-------------------|---------------------|
|-------------------|---------------------|
|--7----------------|--8--------10--------|
|--7----------------|--8--------10--------|
|--7----------------|--8--------10--------|

|-------------------|--------------------|-------------------|
|-------------------|--------------------|-------------------|
|-------------------|--------------------|-------------------|
|--7----------------|--8--------5--------|--7----------------|
|--7----------------|--8--------5--------|--7----------------|
|--7----------------|--8--------5--------|--7----------------|


                                                                   
|---------------------|-------------------|-----------------------------|
|---------------------|-------------------|-----------------------------|
|---------------------|-------------------|-----------2~-2-2-2--2-------|
|--8--------10--------|--7----------------|--7--------------------5-3-2-|
|--8--------10--------|--7----------------|--7--------------------------|
|--8--------10--------|--7----------------|--7--------------------------|

Guitar 2

plays something like this
|-----------------------------------|
|--10--x-x-10-x-10----x--x--10--10--|
|--9---x-x-9--x-9-----x--x--9---9---|
|--7---x-x-7--x-7-----x--x--7---7---|
|-----------------------------------|
|-----------------------------------|


Chorus:

Guitar 1:
|--------------------|--------------------|--------------------|
|--------------------|--------------------|--------------------|
|--------------------|--------------------|--------------------|
|--0--------3--------|--8--------5--------|--0--------3--------|
|--0--------3--------|--8--------5--------|--0--------3--------|
|--0--------3--------|--8--------5--------|--0--------3--------|


                                                                   
|------------------------|--------------------|--------------------|
|------------------------|--------------------|--------------------|
|------------------------|--------------------|--------------------|
|--8--------10----6-5-5--|--0--------3--------|--8--------5--------|
|--8--------10----6-5-5--|--0--------3--------|--8--------5--------|
|--8--------10----6-5-5--|--0--------3--------|--8--------5--------|


                                                         
|-------------------|------------------------------------|
|-------------------|------------------------------------|
|--2----------------|--2-2-3p2---2-----------------------|
|--2----------------|----------5---3-5-2-3---2-----------|
|--0----------------|----------------------5---3-5-1-3-0-|
|-------------------|------------------------------------|

Guitar 2:

This is difficult to hear on the record, I would play something like this:

|-----17-------17-------17-------17-------17-------|
|--------15-------15-------15-------15-------15----|
|--14-------14-------14-------14-------14-------14-|
|--------------------------------------------------|
|--------------------------------------------------|
|--------------------------------------------------|
 3 times

 then
                                                 
|--17--x-x-17-x-17----17-17-17--17--|
|--15--x-x-15-x-15----15-15-15--15--|
|--14--x-x-14-x-14----14-14-14--14--|
|-----------------------------------|
|-----------------------------------|
|-----------------------------------|
 3 times

and the rest like Guitar 1



Solo 1 Rythm:

|----------------------------|-----------------------------|
|----------------------------|-----------------------------|
|----------------------------|-----------------------------|
|--5--5-5-5--5-5-5--5-5-8----|--7--7-7-7--7-7-7--7-7-7-8---|
|--5--5-5-5--5-5-5--5-5-8----|--7--7-7-7--7-7-7--7-7-7-8---|
|--5--5-5-5--5-5-5--5-5-8----|--7--7-7-7--7-7-7--7-7-7-8---|

                               
|-----------------------------|
|-----------------------------|
|-----------------------------|
|--7--7-7-7--7-7-7----7-8-10--|
|--7--7-7-7--7-7-7----7-8-10--|
|--7--7-7-7--7-7-7----7-8-10--|
 on last time

Interlude:

                                                                  
|--------------------|--------------------|--------------------|
|--------------------|--------------------|--------------------|
|--------------------|--------------------|--------------------|
|--0----0------------|--0----0------------|--0----0------------|
|--0----0------------|--0----0------------|--0----0------------|
|--0----0------------|--0----0------------|--0----0------------|


                                                                  
|-----------------------|--------------------|--------------------|
|-----------------------|--------------------|--------------------|
|-----------------------|--------------------|--------------------|
|--0--0--0--0--5~-------|--0----0------------|--0----0------------|
|--0--0--0--0--5~-------|--0----0------------|--0----0------------|
|--0--0--0--0--5~-------|--0----0------------|--0----0------------|


                                                 
|--------------------|--------------------------|
|--------------------|--------------------------|
|--------------------|--------------------------|
|--0----0------------|--0--5-0-0-6-0-0-5\-------|
|--0----0------------|--0--5-0-0-6-0-0-5\-------|


Solo 2 Rythm:

|-------------------|---------------------|
|-------------------|---------------------|
|-------------------|---------------------|
|--7----------------|--8--------10--------|
|--7----------------|--8--------10--------|
|--7----------------|--8--------10--------|

|-------------------|--------------------|
|-------------------|--------------------|
|-------------------|--------------------|
|--7----------------|--8--------5--------|
|--7----------------|--8--------5--------|
|--7----------------|--8--------5--------|
00:00 / 00:00
Otros videos de esta canción
Repetir
Otros videos de esta canción
Composición de Adrian Smith / Bruce Dickinson
Colaboración y revisión:
  • Leandro Abaurre
44 exhibiciones
    • ½ Tono
    • A
    • Bb
    • B
    • C
    • Db
    • D
    • Eb
    • E
    • F
    • F#
    • G
    • Ab
  • Agregar a la lista
    00:00 / 00:00
    OK