Cifra Club

Aprenda

Lucky Town

Bruce Springsteen

Tablatura: Principal (guitarra)
tono: A#
Gm        
Well house got too crowded clothes got too tight 
     Bb                         F 
And I don't know just where I'm going tonight 
             Gm 
Out where the sky's been cleared by a good hard rain 
         Bb                 F 
There's somebody callin' my secret name 
 
 Eb               F 
I'm going down to Lucky Town 
       Bb               Gm 
Going down to Lucky Town 
Eb                 F          Gm 
I wanna lose these blues I've found 
    F             Gm 
Down in Lucky Town 
        Eb     Bb       F 
Baby, down in Lucky Town 
 
      Gm 
Had a coat of fine leather and snakeskin boots 
       Bb                         F 
But that coat always had a thread hangin' loose 
       Gm 
Well I pulled it one night and to my surprise 
              Bb          F 
It led me right past your house and over the rise 
 
 Eb               F 
I'm going down to Lucky Town 
 Bb               Gm 
Down to Lucky Town 
Eb                 F          Gm 
I wanna lose these blues I've found 
    F             Gm 
Down in Lucky Town 
        Eb     Bb       F 
Baby, down in Lucky Town 
 
       Eb 
Well, I had some victory that was just failure in deceit 
        Bb                               Gm 
Now the joke's comin' up through the soles of my feet 
Eb 
I been a long time walking on fortune's cane 
              Bb                          Gm  
Well, tonight I'm steppin' lightly and feelin' no pain 
 
Gm                          Bb            F            Gm 
-------------|-------------|-------------|------------|-------------| 
-------------|-------------|-------------|------------|-------------| 
-------------|----3--------|-------------|------------|-------------| 
-3>5--5--5-5-|-5----5-3----|-------------|------------|---------3-5-| 
--h----------|-----------5-|-5--3-3--3-5-|-3--3-3-3-3-|-3>5--5------| 
-------------|-------------|-------------|------------|--h----------| 
 
             Bb              F 
------------|---------------|-------------|----- 
------------|---------------|-------------|----- 
----3-------|---------------|-------------|----- 
-5----5-3---|---------------|-------------|----- 
----------5-|-3>5--3-3--3-5-|-3--3--5-3-1-|----- 
------------|--h------------|-------------|-1--- 
 
               Gm 
Well here's to your good looks baby now here's to my health 
            Bb                    F 
Here's to the loaded places that we take ourselves 
 Gm 
When it comes to luck you make your own 
              Bb                                F 
Tonight I got dirt on my hands but I'm building me a new home 
 
Eb                F 
I'm going down in Lucky Town 
    Bb            Gm 
Down in Lucky Town 
Eb                   F          Gm 
I'm gonna lose these blues I've found 
    F            Gm 
Down in Lucky Town 
         Eb    Bb      F 
Baby, down in Lucky Town 
 
 
(repeat Chorus to fade out)
Composição de Bruce Springsteen
507 reproducciones
    • ½ Tono
    • A
    • Bb
    • B
    • C
    • Db
    • D
    • Eb
    • E
    • F
    • F#
    • G
    • Ab
  • Adicionar à lista

    0 comentarios

    Ver todos os comentários
    00:00 / 00:00
    outros vídeos desta música
    repetir qualidade Automático
    Outros vídeos desta música
    00:00 / 00:00
    Automático
    OK