Cifra Club

Sad Eyes

Bruce Springsteen

Tab de bajo: Principal
tabbed by: Guido Comparato 

 Intro / Verse / Chorus [with some variations...]
G|--------------------------------------------------|
D|--------------------------------------------------|
A|-------------5--5-5-4-2---------------------------|
E|--3--3-5--5-------------2-3--3-5--5-7--7-7-9-7-5--|

G|---------------------------------------------------------------|
D|---------------------------------------------------------------|
A|-------------5--5-5-4-2----------------------------------------|
E|--3--3-5--5-------------2-3--3-5--5-7--7--7--7-7--7--7--7-5-4--|

 "Baby don't you know I don't care..."
G|------------------------------------------------------------------------|
D|------------------------------------------------------------------------|
A|------------------------------------------------------------------------|
E|-3--3-3--3-5--5-5--5-7--7-7--7--7-5--3--3-3--3-5--5-5--5-7--7-7--7--7-5-|

G|-----------------------|
D|-----------------------|
A|-----------------------|
E|-3--3-3--3--3-3--3-5---|

 The chorus is a little bit different from the verse but this one 
 sounds good too. Listen to the song for the rythm.
 Corrections, comments or anything else to *

 Bye bye
Composición de Bruce Springsteen
250 vistas

0 comentarios

Ver todos los comentarios
00:00 / 00:00
Outros vídeos desta música
Repetir Calidad Automático
Outros vídeos desta música
00:00 / 00:00
Automático
OK