Cifra Club

Bem Aventurado

Bruna Karla

Tablatura: Principal (guitarra)
tono: A
Intro: 

E|-------------------------------------------------------------|
B|-------------------------------------------------------------|
G|---------------------------------------------------------4---|    
D|-------5h6-----------------5h6---------5h6---------------4---|
A|---5-7-----7--2-4-5--5-4-2-----7---5-7-----7--2-4-5--5-4-2---|
E|-7-------------------------------7---------------------------|

E|-------------------------------------------------------------|
B|-------------------------------------------------------------|
G|-------------------------------------------------------------|    
D|-------5h6-----------------5h6---------5h6-------------------|
A|---5-7-----7--2-4-5--5-4-2-----7---5-7-----7--2-4-5--5-4~----|
E|-7-------------------------------7---------------------------|

E
 Agradável é o lugar que habitas 
B
 A minha alma quer estar nos Teus átrios
C#m
 O meu coração e todo meu corpo
A
 Clamam por Ti, Oh, Deus vivo!

E
 Tu és o meu sol e o meu escudo
B
 Sou abençoado pela Tua graça
C#m
 Por onde eu passar levarei Teu nome
D
 E sempre direi

 Refrão:

            E                    B
 Bem-aventurado sou ( Bem-aventurado )
           C#m                   A
 Bem-aventurado sou ( Bem-aventurado sou )
            E                    B
 Bem-aventurado sou 
              F#m         A
 Pois minha força vem de Ti
            E                    B
 Bem-aventurado sou ( Bem-aventurado )
           C#m                   D
 Bem-aventurado sou ( Bem-aventurado sou )
            E                    B
 Bem-aventurado sou                                                                                                                                                
            F#m     A
 Pois eu sou a Tua casa, meu Senhor
 
 Repete Intro 1x:

E|-------------------------------------------------------------|
B|-------------------------------------------------------------|
G|-------------------------------------------------------------|    
D|-------5h6-----------------5h6---------5h6-------------6-----|
A|---5-7-----7--2-4-5--5-4-2-----7---5-7-----7--2-4-5--5-4-----|
E|-7-------------------------------7---------------------------|

 E
  Agradável é o lugar que habitas 
 B
  A minha alma quer estar nos Teus átrios
 C#m
  O meu coração e todo meu corpo
 A
  Clamam por Ti, Oh, Deus vivo!

 
 E
  Tu és o meu sol e o meu escudo
 B
  Sou abençoado pela Tua graça
 C#m
  Por onde eu passar levarei Teu nome
 D
  E sempre direi

  Refrão:

             E                    B
  Bem-aventurado sou ( Bem-aventurado )
            C#m                   A
  Bem-aventurado sou ( Bem-aventurado sou )
             E                    B
  Bem-aventurado sou 
               F#m         A
  Pois minha força vem de Ti
             E                    B
  Bem-aventurado sou ( Bem-aventurado )
            C#m                   D
  Bem-aventurado sou ( Bem-aventurado sou )
             E                    B
  Bem-aventurado sou              
             F#m     A
  Pois eu sou a Tua casa, meu Senhor

  Base Solo: E  B  F#m  A  E  B  F#m  D

  Repete Refrão:
                 
  Bem-aventurado sou                 
  Bem-aventurado sou                
  Bem-aventurado sou 
               F#m E       D A/C# B
  Pois minha força vem de Ti
             
             E                    B
  Bem-aventurado sou ( Bem-aventurado )
            C#m                   D
  Bem-aventurado sou ( Bem-aventurado sou )
             E                    B
  Bem-aventurado sou              
             F#m     A
  Pois eu sou a Tua casa

             E                    B
  Bem-aventurado sou ( Bem-aventurado )
            C#m                   D
  Bem-aventurado sou ( Bem-aventurado sou )
             E                    B
  Bem-aventurado sou              
             F#m     A
  Pois eu sou a Tua casa, meu senhor

  Final:

  E|-------------------------------------------------------------|
  B|-------------------------------------------------------------|
  G|---------------------------------------------------------4---|    
  D|-------5h6-----------------5h6---------5h6---------------4---|
  A|---5-7-----7--2-4-5--5-4-2-----7---5-7-----7--2-4-5--5-4-2---|
  E|-7-------------------------------7---------------------------|

  E|-------------------------------------------------------------|
  B|-------------------------------------------------------------|
  G|-------------------------------------------------------------|    
  D|-------5h6-----------------5h6---------5h6--------7--7-6-----|
  A|---5-7-----7--2-4-5--5-4-2-----7---5-7-----7--2-4-5--5-4-----|
  E|-7-------------------------------7---------------------------|
Colaboración y revision:
  • Otávio
128 reproducciones
    • ½ Tono
    • A
    • Bb
    • B
    • C
    • Db
    • D
    • Eb
    • E
    • F
    • F#
    • G
    • Ab
  • Adicionar à lista

    0 comentarios

    Ver todos os comentários
    00:00 / 00:00
    outros vídeos desta música
    repetir qualidade Automático
    Outros vídeos desta música
    00:00 / 00:00
    Automático
    OK