Cifra Club

Aprenda

Deixar a Lágrima Rolar

Bruna Karla

Tablatura: Principal (guitarra)
tono: B
[Intro]  B9  B/D#  E9  Em6

[Solo Intro]

E|-------------------------------------------|
B|-------------------------------------------|
G|------------6h8---4--8-9p8-----------------|
D|-------4-4------6----------9----9/11-------|
A|-2-2/4-----------------------11------------|
E|-------------------------------------------|

B9
   Tenho tantas coisas pra dizer
B/D#
     Tenho tantos versos pra escrever
E9                                Em6
   Fiz uma canção de amor pra cantar pra Ti
B9
   Tenho tantas notas pra tocar
B/D#                       E9
     Um poema pra te declarar
     Em6
Mas sabe, Deus

C#m
É
                   B/D#
Hoje a noite foi fria
                     E9
O vento tentou me levar
               F#4  F#
Angústia me feriu
C#m                         B/D#
    A dor mais forte do que eu
                      G#m
Tentou calar a minha voz
           D#7        E
Tentou roubar Tua canção
       B/D#     C#m
E sufocar adoração
              F#4       B9
Que é só pra Ti e mais ninguém

    E/F#      B9
Eu só queria levantar
                    B/D#
As minhas mãos e Te adorar
               C#m
Deixar a lágrima rolar
               Em6
Deixar a lágrima rolar

              B9
Eu só queria levantar
                    B/D#
As minhas mãos e Te adorar
               C#m
Deixar a lágrima rolar
               A9
Deixar a lágrima rolar

G#m  B/D#  E9  F#4  F#

[Solo]  G#m  D#m  E9  B/D#  C#m  D#7  B9

Parte 1 de 2

E|----------------------------11p9-----------|
B|---------------------------------12--------|
G|-8p6-----6----------8p6-------------11-----|
D|-----9-6---6/8-6-4------9-6----------------|
A|-------------------------------------------|
E|-------------------------------------------|

Parte 2 de 2

E|-------------------------------------------|
B|-----------7/9-9-8-9-11-12-----------------|
G|-9p8-9-8-9-----------------11h13-11--8h9-8-|
D|-------------------------------------------|
A|-------------------------------------------|
E|-------------------------------------------|

    E/F#      B9
Eu só queria levantar
                    B/D#
As minhas mãos e Te adorar
               C#m
Deixar a lágrima rolar
               Em6
Deixar a lágrima rolar

              B9
Eu só queria levantar
                    B/D#
As minhas mãos e Te adorar
               C#m
Deixar a lágrima rolar
               A9
Deixar a lágrima rolar

              B9
Eu só queria levantar
                    B/D#
As minhas mãos e Te adorar
               C#m
Deixar a lágrima rolar
               Em6
Deixar a lágrima rolar
Composição de Emerson Pinheiro
Colaboración y revision:
  • Fernanda Souza
  • Marcos Paulo
  • deivid dias
955 reproducciones
    • ½ Tono
    • A
    • Bb
    • B
    • C
    • Db
    • D
    • Eb
    • E
    • F
    • F#
    • G
    • Ab
  • Adicionar à lista

    0 comentarios

    Ver todos os comentários

    ¿Conseguiste tocar?

    2 Tocaram 7 Ainda não

    Grave um vídeo tocando Deixar a Lágrima Rolar e nos envie!

    00:00 / 00:00
    outros vídeos desta música
    repetir qualidade Automático
    Outros vídeos desta música
    00:00 / 00:00
    Automático
    OK