Cifra Club

Aprenda

Deus É Bom Demais Pra Mim

Bruna Karla

Tablatura: Principal (guitarra)
tono: E
Intro: C#m  B/D#  E  B/D#  C#m  B/D#  E  B/D#  C#m  B/D#  E  B/D#  C#m  B/D#  E

Riff 4x:
E|--------------------|  
B|--------------------|  
G|--------------------|  
D|--------------------|  
A|-4---2h4-4-4---2-4--|  
E|---4---------4------|  

C#m             A            E
O meu coração se enche de alegria
C#m                A         E E4 E
Quando penso na bondade do Senhor
G#                              C#m
Pois eu sei que se renova a cada dia
F#/A#                   B
A Sua misericórdia e o Seu amor0
C#m                            A           E
E é por isso que eu não tive o fim que eu mereço
C#m                  A             E E4 E
Pois Jesus morreu na cruz em meu lugar
G#                                 C#m
De mãos levantadas todo o dia eu agradeço
F#/A#                          B
E o meu coração não cansa de O adorar

Coro:

          A
Eu sei que Deus é bom
       E
Deus é bom demais
             B
Deus é muito bom
             A
Deus é bom demais
               E E4 E
Bom demais pra mim

           A
Eu sei que Deus é bom
       E
Deus é bom demais
             B
Deus é muito bom
             A
Deus é bom demais
               C#m B/D# E B/D# C#m B/D# E
Bom demais pra mim

Volta Riff repete 2x

C#m                            A           E
E é por isso que eu não tive o fim que eu mereço
C#m                  A             E E4 E
Pois Jesus morreu na cruz em meu lugar
G#                                 C#m
De mãos levantadas todo o dia eu agradeço
F#/A#                          B
E o meu coração não cansa de O adorar

Instrumental 2x 

Parte 1
E|---------------------------------------|
B|---------------------------------------|
G|---------------------------------------|
D|---------5-----------------------------|
A|-----5-7---7-5-------------------------|
E|-0-7-----------7-6-5-3-0---------------|

Parte 2

E|---------------------------------------|
B|---------------------------------------|
G|---------------------------------------|
D|---------5-----------------------------|
A|-----5-7---7---5-7---------------------|
E|-0-7---------7-----0-------------------|

Parte 3

E|---------------------------------------|
B|---------------------------------------|
G|---------------------------------------|
D|---------5-----------------------------|
A|-----5-7---7-5-------------------------|
E|-0-7-----------7-6-5-3-0---------------|

Parte 4

E|---------------------------------------|
B|---------------------------------------|
G|---------------------------------------|
D|---------5-----------------------------|
A|-----5-7---7~--------------------------|
E|-0-7-----------------------------------|
Composição de Ana / Edson Feitosa
Colaboración y revision:
  • Otávio
  • Cláudia Souza
129 reproducciones
    • ½ Tono
    • A
    • Bb
    • B
    • C
    • Db
    • D
    • Eb
    • E
    • F
    • F#
    • G
    • Ab
  • Adicionar à lista

    0 comentarios

    Ver todos os comentários

    ¿Conseguiste tocar?

    2 Tocaram 0 Ainda não

    Grave um vídeo tocando Deus É Bom Demais Pra Mim e nos envie!

    00:00 / 00:00
    outros vídeos desta música
    repetir qualidade Automático
    Outros vídeos desta música
    00:00 / 00:00
    Automático
    OK