Cifra Club

Vento do Espírito

Bruna Karla

Tablatura: Completa (guitarra)
Já pensou em usar uma coleção de roupas do Cifra Club? Responda as perguntas abaixo e nos ajude nessa missão! →
tono: E
  C#m B4 E5 G#m B9 F#m   G#m    C#m B9 A9 C#m B9 A9     G#m    G#m/D# F#m/C# B9   C#m7
E|--0---0--0---------2-2/--4~-|---------------------|------4-|-4-----2-----2-|-------------4-|
B|--5---0--0--4--0---2-2/--4~-|---puxe-as cordas p/-|-----4--|-4-----2-----2-|-5p4--------5--|
G|--6---4--9--4--4---2-2/--4~-|-----cada-acorde|----|----4---|-4-----2-----4-|-----4h6---4---|
D|------4--9--6--4------------|----------1x---------|---6----|---------------|----------6----|
A|--4---2--7-----2------------|---------------------|--6-----|-6-----4-----2-|---------4-----|
E|------------4------2-2/--4~-|---------------------|-4------|---------------|---------------|
  toq.este trexo 2x puxando
       os acordes
  C#m           A               C#m           A
Uma nuvem de /glória,         uma coluna de /fogo
E|------------|--------0h2-h4-|--------------|-----------|
B|-5-5--5-5---|-2-2--2--------|-5-5--5-5-----|-2-2--2-2--|
G|--6-6--6-6--|--2-2--2-------|--6-6--6-6----|--2-2--2-2-|
D|------------|---------------|--------------|-----------|
A|-4----4-----|-0----0--------|-4----4-------|-0----0----|
E|------------|---------------|--------------|-----------|
      G#m7           G#m7         C#m
  Posso ver neste/ lugar a Face de/ Deus    B9 C9         C#m
E|---------------|---------------|--------|------------------4-|
B|-3---3---3-3---|-3---3---3-3---|-5-5--5-|-2/-4--5-4-0-----5--|
G|--3-3-----3-3--|--3-3-----3-3--|--6-6--6|-4/-6-------1---6---|
D|---3-----------|---3-----------|--------|---------------6----|
A|---------------|---------------|-4----4-|-2/-4---------4-----|
E|-3---3---3-----|-3---3---3-----|--------|--------------------|
C#m7                 A               C#m                 A
  Línguas como de/   fogo    C#m    é o som que vem do / céu
E|--------------|---------|---4---|------------------|-----------|
B|-5-5--5-5-----|-2-2--2--|-5-5-5-|-5-5--5-5---------|-2-2--2-2--|
G|--6-6--6-6----|--2-2--2-|-------|--6-6--6-6--------|--2-2--2-2-|
D|--------------|---------|-------|------------------|-----------|
A|-4----4-------|-0----0--|-4---4-|-4----4-----------|-0----0----|
E|--------------|---------|-------|------------------|-----------|
       G#m7       G#m7                C#m
  Posso ouvir o/  derramar do Espírito/ de Deus  A  C#m/G#
E|--------------|-2---2-------------|---------|----|---|
B|-3---3---3-3--|---4---4-----------|-5-5--5--|-2--|-5-|
G|--3-3-----3-3-|--4-4-4-4----------|--6-6----|--2-|-6-|
D|---3----------|-------------------|---------|----|-6-|
A|--------------|-------------------|-4----4--|-0--|---|
E|-3---3---3----|-3---3-------------|---------|----|---|

      passagem C#m7 B9 A9

G#                          C#m
Quando o vento soprar hoje aqui
C#m                                    A         rápida
A glória vai descer e tomar todo este lugar     passagem
             F#m                     E       E D#m C#m B9 A
É o grande avivamento que se cumpre hoje aqui

G#                            C#m
Ninguém pode impedir o agir de Deus
C#m                                          A
Quando Ele fala o céu e a terra têm que obedecer
                 F#m          A           B9
Se prepare, meu irmão, este lugar vai tremer

B7  B7(9)  E              B
Vem sobre mim, Espírito Santo
        A         F#m          B9
Só Tua presença preenche o meu ser
B7        E                    B
Vento do Espírito, enche a Tua Igreja
  F#m              A9        B7           E      passagem
Queremos ver tua glória manifesta o teu poder C#m B9 A9 A G#m

G#                          C#m
Quando o vento soprar hoje aqui
C#m                                    A          rápida
A glória vai descer e tomar todo este lugar      passagem
             F#m                     E       E D#m C#m B9 A
É o grande avivamento que se cumpre hoje aqui

G#                            C#m
Ninguém pode impedir o agir de Deus
C#m                                          A
Quando Ele fala o céu e a terra têm que obedecer
                 F#m         A           B9
Se prepare, meu irmão, este lugar vai tremer

      Refrão:
B7  B7(9)  E              B
Vem sobre mim, Espírito Santo
        A         F#m          B9  B7
Só Tua presença preenche o meu ser
B7        E                    B
Vento do Espírito, enche a Tua Igreja
 F#m             A9        B7            E
Queremos ver tua glória manifesta o teu pode

B7(9) B7     E              B
Vem sobre mim, Espírito Santo      passagem
        A         F#m          B9  B7 B7(9)
Só Tua presença preenche o meu ser
B7        E                    B
Vento do Espírito, enche a Tua Igreja
 F#m             A9        B7           E
Queremos ver tua glória manifesta o teu poder

  C#m            A               F#m       B9  A9
Queremos ver tua glória,Queremos ver tua glória
   G#m    F#m     A9       F#m       B9    E
Queremos ver tua glória,manifesta o teu poder
Composição de Eliel Lopes / Silvinho Figueiredo
Colaboración y revision:
  • Fellipe
51 reproducciones
    • ½ Tono
    • A
    • Bb
    • B
    • C
    • Db
    • D
    • Eb
    • E
    • F
    • F#
    • G
    • Ab
  • Adicionar à lista

    0 comentarios

    Ver todos os comentários
    00:00 / 00:00
    outros vídeos desta música
    repetir qualidade Automático
    Outros vídeos desta música
    00:00 / 00:00
    Automático
    OK