Cifra Club

Derramando Saudade

Bruna Viola

Cifrado: Principal (guitarra y guitarra eléctrica)
tono: E
 Introdução: A C#m F# B7 A B7 E

E|---------------------------------------------|
B|---------------------------------------------|
G|-0-1-3----5---5-5--------5---5---5----8---8-8|
E|-0-2-4-/5---5-----4-4-/5---5---5---/9---9----|
B|---------------------------------------------|

E|---------------------------------------7-----|
B|---------------------------------------7-----|
G|-10-12-10-8----------------------------7-----|
E|-11-12-11-9----6---6-6-7-9--9--7-6-6---7-----|
B|------------/7---7-----9-11-11-9-7-7-5-7-----|
 
E|-----------------0-|
B|-----------------0-|
G|-/5---3----1---0-0-|
E|----5---4----2---0-|
B|-----------------0-|

                                B7
Hoje a noite caiu derramando saudade
A                                 E
Minha viola não quer nem mesmo afinar
                                      B7
A voz não sai e no peito a tristeza invade
A                                       E
Tenho que achar algum jeito de te encontrar


A                                    E
Juro vou ao fim do mundo só pra te dizer
     B7                A       B7       E  E7
Que pelas estradas da vida eu penso em você
A                                 E
Faço o que for preciso pra pode estar
   B7               A      B7      E  E7
Ao lado seu a toda hora em todo lugar


   A                                 E
A viola é que me ampara na ausência tua
      B7              A          B7    E   E7
É com ela que eu me distraio por esse pais
A                                     E
Em cada canto que eu paro sentimento muda
B7                  A        B7     E    E F#m G#m
Quanto mais longe maior é a saudade sua


  Introdução: A C#m F# B7 A B7 E
E|---------------------------------------------|
B|---------------------------------------------|
G|-0-1-3----5---5-5--------5---5---5----8---8-8|
E|-0-2-4-/5---5-----4-4-/5---5---5---/9---9----|
B|---------------------------------------------|

E|---------------------------------------7-----|
B|---------------------------------------7-----|
G|-10-12-10-8----------------------------7-----|
E|-11-12-11-9----6---6-6-7-9--9--7-6-6---7-----|
B|------------/7---7-----9-11-11-9-7-7-5-7-----|
 
 
E|-----------------0-|
B|-----------------0-|
G|-/5---3----1---0-0-|
E|----5---4----2---0-|
B|-----------------0-|


                                          B7
Seja no céu ou no asfalto vou seguindo a vida
A                                     E
Levando alegria a todos que gostam de ouvir
A                                       E
A minha voz e os meus dedos ponteando o aço
B7                   A         B7          E
Pode pedir qualquer coisa por você que eu faço


A                             E
Cada cidade que passo eu vejo você
B7                  A              E      E7
Seja na coisa mais simples de se perceber
A                                E
Esse amor tão distante é que me invade
B7            A         B7          E
Hoje a noite caiu derramando saudade.
00:00 / 00:00
Otros videos de esta canción
Repetir
Otros videos de esta canción
Compositor no encontrado.
Colaboración y revisión:
  • pedro Garcia
21 vistas
    • ½ Tono
    • A
    • Bb
    • B
    • C
    • Db
    • D
    • Eb
    • E
    • F
    • F#
    • G
    • Ab
  • Agregar a la lista

    0 comentarios

    Ver todos los comentarios

    ¿Lograste tocar?

    0 Tocaron 0 Aún no

    ¡Graba un video tocando Derramando Saudade y envíanoslo!

    00:00 / 00:00
    OK