Cifra Club

Melhor Saída

Bruna Viola

Cifrado: Principal (guitarra y guitarra eléctrica)
tono: G
Intro: G  D  Em  C
       G  D  Em  C  Em  G
E|--3-----3-----3---3-----3-----3---3---------------
B|----3-3---3-3---3---3-3---3-3---3-----------------
G|--------------------------------------------------
D|--------------------------------------------------
A|--------------------------------------------------
E|--------------------------------------------------

E|---3--5--7--5--3--5--7----------------------------
B|-3----------------------8---5-5---3-3---1-0-------
G|--------------------------------------------------
D|--------------------------------------------------
A|--------------------------------------------------
E|--------------------------------------------------

E|---3--5--7--5--3--5s-10-10---7------10----9----3--
B|-3--------------------------------8-----7----3----
G|--------------------------------------------------
D|--------------------------------------------------
A|--------------------------------------------------
E|--------------------------------------------------

   G       D
  Agora é tudo ou nada
C                                G
  Quero fazer uma pergunta pra você
                    D
  Mas pense bem na resposta
C
  Você só tem uma chance de responder
Em            D
  Escolha bem as palavras
C
  Não se enrole e não tente adiar
Em              D
  Não quero decisão
                   C                D
  Dessa vez meu coração quem vai falar

Refrão:

   G      D                     Em
  Fala o que você sente por mim
                  C
  Acaba logo com essa desconfiança
   G                D
  Se eu te quero e você também me quer
         Em                   C
  Vamos logo ficar junto seja o que Deus quiser
   G        D                   Em
  Chega pergunta que eu ti digo sim
                            C
  E abre as portas deixa eu entrar na tua vida
G             D          Em
  Entenda de uma vez que prá nós dois
   C        D       G
  Não tem melhor saída

Em            D
  Escolha bem as palavras
C
  Não se enrole e não tente adiar
Em              D
  Não quero decisão
                   C                D
  Dessa vez meu coração quem vai falar

Refrão:
   G      D                     Em
  Fala o que você sente por mim
                  C
  Acaba logo com essa desconfiança
   G                D
  Se eu te quero e você também me quer
         Em                   C
  Vamos logo ficar junto seja o que Deus quiser
   G        D                   Em
  Chega pergunta que eu ti digo sim
                            C
  E abre as portas deixa eu entrar na tua vida
G             D          Em
  Entenda de uma vez que prá nós dois
   C        D       G
  Não tem melhor saída
00:00 / 00:00
Otros videos de esta canción
Repetir
Otros videos de esta canción
Composición de Manoela Albino
Colaboración y revisión:
  • Thiago Paes
86 vistas
    • ½ Tono
    • A
    • Bb
    • B
    • C
    • Db
    • D
    • Eb
    • E
    • F
    • F#
    • G
    • Ab
  • Agregar a la lista

    0 comentarios

    Ver todos los comentarios

    ¿Lograste tocar?

    3 Tocaron 0 Aún no

    ¡Graba un video tocando Melhor Saída y envíanoslo!

    00:00 / 00:00
    OK