Cifra Club

No Ponteio da Viola

Bruna Viola

Cifrado: Principal (guitarra y guitarra eléctrica)
tono: E
E|-------------------------------------------------------------------|
B|----0------0-------0------0--------0-------0---------0-----0-------|
G|-------------------------------------------------------------------|
B|-------4-7---4--------4-7---4----------2-5----2----------2-----2---|
E|--0--5---------5-0--5---------4-0----4----------4-0----4---------5-|

E|-------------------------------------------------------------------|
B|----0--------0-------0-------0-----------0----0---5----------------|
G|---------------------------------5-----8-----7---5-----3-----------|
B|--------4-7-----4--------4-7---4-5-0-9----0-7---0---0-4------------|
E|--0---5----------5-0---5-------------------------------------------|

E|-------------------------------------------------------------------|
B|--------0--------0-------0-------0-------0------0-------0------0---|
G|-------------------------------------------------------------------|
D|-----11--------9-------7-------5------9-------7-------5------4-----|
A|-0-12-----0-10-----0-9-----0-7-----10-----0-9-----0-7----v| grg
0-5-------|

E                                       B7
Aprendi tocar viola e não tive professor
                                          E      E7
 Fiz esse pagode novo só pra mostrar o meu valor
    A                                            B7
 Vim dizer algumas coisas que um dia alguém me contou
                                        E
 É um ditado muito certo, já dizia meu avô
                       B7                        E
 Na boca de quem não presta o que é bom não tem valor

E                 B7
Sou um caboclo do mato canto com os passarinhos
                                          E       E7
 Com Deus e a viola no braço eu nunca estou sozinho
   A                                        B7
 No jardim que eu cultivo, roseira não dá espinho
                                             E
 Pra uma ave abandonada oito garrancho é um ninho
                      B7                     E
 Pra quem já está perdido qualquer veree cresce
   A                                            B7
 Sei que quem bate não lembra, quem apanha não esquece
                                             E
 Desprezo de um falso amor, meu coração não padece
                      B7                     E
 Terreiro que o galo canta, a galinhada obedece

E                B7
Na entrada do portão tapete vira capacho
                                           E  E7
 Na Cordilheira dos Andes bananeira não dá cacho
  A                                       B7
 No ponteio da viola meus dedos correm no aço
                                               E
 No batidão do pagode tudo o que eu procuro eu acho
                       B7                            E
 Dou uma viola de presente pra quem fizer o que eu faço
00:00 / 00:00
Otros videos de esta canción
Repetir
Otros videos de esta canción
Composición de Mayck Meira / Ze Gauchinho
Colaboración y revisión:
  • guilherme santos
  • Thainá Ribeiro
413 vistas
    • ½ Tono
    • A
    • Bb
    • B
    • C
    • Db
    • D
    • Eb
    • E
    • F
    • F#
    • G
    • Ab
  • Agregar a la lista

    0 comentarios

    Ver todos los comentarios

    ¿Lograste tocar?

    6 Tocaron 3 Aún no

    ¡Graba un video tocando No Ponteio da Viola y envíanoslo!

    00:00 / 00:00
    OK