Cifra Club

Bijuteria

Bruno e Marrone

Tablatura: Principal
reproducciones 2.520
Tono: C
          Am        Am7/G
Quando a noite cai
                              Dm
É que eu sinto a falta que você me faz
Dm/C                               Bm7/5-
   Saudade que não passa e nem me deixa em paz
E                                 Am          Bm7/5-   (F#m G#m)
  A sombra de um amor que já brilhou demais

      Am
Você foi pra mim
                Am7/G        Dm
A coisa mais bonita que me aconteceu
Dm/C                             Bm7/5-
   Não pode imaginar os sonhos que me deu
E                             Am           A7    A4(7) A/C#
  E quanta insegurança me deixou no adeus

Pré-Refrão:

  Dm
Amei você
G                                 C7M
  Sem truque, sem maldade, fiz o meu papel
F7M                                Bm7/5-
   Eu quis lhe oferecer o que ninguém me deu
E                            Am        A7    A4(7) A/C#
  Você não acredita, mas eu fui fiel

  Dm
Amei você
G                 G/B            C7M
  Mas hoje posso ver que foi melhor assim
F7M                                Bm7/5-
   Preciso te esquecer pra me lembrar de mim
E              Am      A7    A4(7) A/C#
  A vida continua

Refrão:

       Dm                 G
E no brilho de uma pedra falsa
      C7M                Am
Dei amor a quem não merecia
       Bm7/5-              E               Am   A7
Eu pensei que era uma jóia rara, era bijuteria

        Dm                G
Das mentiras as palavras doces
      C7M                   Am
Vi calor em teu olhar tão frio
      Bm7/5-              E                  Am
Na beleza do teu rosto esconde um coração vazio.

E|----------------------------------------------------------------------10--10~--------------|
B|--8/10-8-----8/10-10~--1-1---0-0----0------6/8-6----6/8-8~-----10/12-----------13-12-13-10~|
G|---------10------------2-2---0-0--2-0------------9-----------------------------------------|
D|----------------------------------3--------------------------------------------------------|
A|-------------------------------------------------------------------------------------------|
E|-------------------------------------------------------------------------------------------|

E|-------------------------------------------------------------------------------------------|
B|--8/10-8-----8/10-10~------12-12-12-12-12-12-13-13-13-13-13-13-13/15\----------------------|
G|---------10--------------------------------------------------------------------------------|
D|-------------------------------------------------------------------------------------------|
A|-------------------------------------------------------------------------------------------|
E|-------------------------------------------------------------------------------------------|

E|----------0---4-0---8---8-12---10-10--8-8~-------------------------------------------------|
B|------------------9---9--------------------------------------------------------------------|
G|------5-----5----------------------------------6-7-9---7-6---------------------------------|
D|--6-----6---------------------------------------------------6-7-9---7-6--------------------|
A|----7--------------------------------------------------------------------10-8-7------------|
E|-------------------------------------------------------------------------------------------|


Pré-Refrão:

  Dm
Amei você
G                                 C7M
  Sem truque, sem maldade, fiz o meu papel
F7M                                Bm7/5-
   Eu quis lhe oferecer o que ninguém me deu
E                            Am        A7    A4(7) A/C#
  Você não acredita, mas eu fui fiel

  Dm
Amei você
G                 G/B            C7M
  Mas hoje posso ver que foi melhor assim
F7M                                Bm7/5-
   Preciso te esquecer pra me lembrar de mim
E              Am      A7    A4(7) A/C#
  A vida continua

Refrão:

       Dm                 G
E no brilho de uma pedra falsa
      C7M                Am
Dei amor a quem não merecia
       Bm7/5-              E               Am   A7
Eu pensei que era uma jóia rara, era bijuteria

       Dm                G
Das mentiras as palavras doces
      C7M                   Am
Vi calor em teu olhar tão frio
      Bm7/5-              E                  Am   Bm7/5-  Em7  E7  Am7M(9)
Na beleza do teu rosto esconde um coração vazio.
Acordes para:

    0 comentarios

      mostrar más comentarios

      ¿Conseguiste tocar?

      35tocaron0aún no

      ¡Graba un vídeo tocando Bijuteria y envianoslo!

      00:00 / 00:00
      outros vídeos desta música
      repetirqualidadeautomática
      Outro vídeos desta música
        00:00 / 00:00
        automática
        OK