Cifra Club

Boate Azul

Bruno e Marrone

Cifrado: Principal (guitarra y guitarra eléctrica)
Selo Cifra Club: esta cifra foi revisada para atender aos critérios oficiais da nossa Equipe de Qualidade.
tono: Am
[Intro] Fm  Bb  Eb  Cm
        Fm  G  Cm  C7
        Fm  Bb  Eb  Ab
        Fm  G  Cm

[Tab - Solo Intro]

E|----3-4-3-4-3-4---------------------------|
B|-6---------------4-3h4p3~-----------------|
G|------------------------------------------|
D|------------------------------------------|
A|------------------------------------------|
E|------------------------------------------|

E|---------3---3---3------------------------|
B|-3h4h6-----6---6--------------------------|
G|--------------------7-5h7p5~--------------|
D|------------------------------------------|
A|------------------------------------------|
E|------------------------------------------|

E|------------------------------------------|
B|---3h4h6--4-6-4-6-------------------------|
G|-5----------------5-4h5p4-----------------|
D|--------------------------6p5-------------|
A|------------------------------------------|
E|------------------------------------------|

E|------------------------------------------|
B|------------------3h4-4-----3h4h5---6h7h8-|
G|-4-7-5h7p5----------------5---------------|
D|--------------5-5-------------------------|
A|------------------------------------------|
E|------------------------------------------|

E|--------8------8------8-------------------|
B|-9--11--9--11--9--11--9---8-8-6-6-6-------|
G|-10-12-----12-----12------8-8-7-7-7-------|
D|------------------------------------------|
A|------------------------------------------|
E|------------------------------------------|

E|------------------------------------------|
B|-8-9--11--9--11-9--11--6-6-4-4-4----------|
G|-8-10-12--10-12-10-12--7-7-5-5-5----------|
D|------------------------------------------|
A|------------------------------------------|
E|------------------------------------------|

E|------------------------------------------|
B|-6-8-9---8-9--8-9---4-3-1p0---------------|
G|-7-8-10--8-10-8-10--5-4-----0---4-7-5h7p5-|
D|------------------------------------------|
A|------------------------------------------|
E|------------------------------------------|

E|-----------3--------8---------------------|
B|---4--------------------------------------|
G|--------5-------/8------------------------|
D|-5----------------------------------------|
A|------------------------------------------|
E|------------------------------------------|

[Primeira Parte]

            Cm
Doente de amor procurei remédio
           Bb
Na vida noturna
               Ab
Com a flor da noite
                           G
Em uma boate aqui na zona sul

           Fm
A dor do amor é com outro amor
             Cm
Que a gente cura
             G
Vim curar a dor desse mal de amor
           Cm  C7
Na boate azul
            Fm
E quando a noite vai se agonizando
                Cm
No clarão da aurora
      G
Os integrantes da vida noturna
             Cm  C7
Se foram dormir
             Fm
E a dama da noite que estava comigo
              Cm
Também foi embora
                Ab
Fecharam-se as portas
            G
Sozinho de novo
          C
Tive que sair

[Refrão]

C              G
  Sair de que jeito
              F              C
Se nem sei o rumo para onde vou
                                 G
Muito vagamente me lembro que estou
         F                 C
Em uma boate aqui na zona sul
           G
Eu bebi demais
          F                  C
E não consigo me lembrar sequer
                            G
Qual era o nome daquela mulher
           F        G      C  C7
A flor da noite na boate azul

[Solo] Fm  Bb  Eb  Cm 
       Fm  G  Cm  C7 

[Primeira Parte]

            Fm
E quando a noite vai se agonizando
                Cm
No clarão da aurora
      G
Os integrantes da vida noturna
             Cm  C7
Se foram dormir
             Fm
E a dama da noite que estava comigo
              Cm
Também foi embora
                Ab
Fecharam-se as portas
            G
Sozinho de novo
          C
Tive que sair

[Refrão Final]

C              G
  Sair de que jeito
              F              C
Se nem sei o rumo para onde vou
                                 G
Muito vagamente me lembro que estou
         F                 C
Em uma boate aqui na zona sul
           G
Eu bebi demais
          F                  C
E não consigo me lembrar sequer
                            G
Qual era o nome daquela mulher
           F        G      C  C7
A flor da noite na boate azul

             G
Sair de que jeito
              F              C
Se nem sei o rumo para onde vou
                                 G
Muito vagamente me lembro que estou
         F                 C
Em uma boate aqui na zona sul
           G
Eu bebi demais
          F                  C
E não consigo me lembrar sequer
                            G
Qual era o nome daquela mulher
           F        G      C
A flor da noite na boate azul
Otros videos de esta canción
    126.626 exhibiciones
    • Simplificar cifrado
      • ½ Tono
      • Am
      • Bbm
      • Bm
      • Cm
      • C#m
      • Dm
      • Ebm
      • Em
      • Fm
      • F#m
      • Gm
      • G#m
    • Agregar a la lista

    Afinação da cifra

    Afinador online

      Capítulos
      • Apresentação
      • Tocando a Música
      • Acordes da Música
      • Ensinando o Ritmo da Música
      • Encerramento
      Ops (: Contenido disponible solo en portugués.
      OK