Cifra Club

Coração de Pedra

Bruno e Marrone

Cifrado: Principal (guitarra y guitarra eléctrica)
tono: G
[Intro] G  D  C  G  D 

E|---7--8--7--8-7--------7----7-----------------------|
B|---------------10-8-10---10---10-8-7-8--10-8-10-8-7-|
G|----------------------------------------------------|
D|----------------------------------------------------|
A|----------------------------------------------------|
E|----------------------------------------------------|

E|----------------------------------------------------|
B|----------------------------------------------------|
G|-5-4--4-5-7-----------------------------------------|
D|-----------7-5-4------------------------------------|
A|----------------------------------------------------|
E|----------------------------------------------------|

G               D                        C
Quero você, te abraçar, te envolver, te sentir
                 G
Onde está seu carinho
                      D
Sinto o teu cheiro no ar
                  C                     G
Com o pranto no olhar de quem chora sozinho
D            C        G
Perdido, sem rumo, sozinho

[Refrão]

G                           C
Quanta indiferença você me faz
                           G
Coração de pedra me faz sofrer
                               D  D9  D 
Não tem dó de mim só me faz chorar
         C                    G  G4  G
Tento esquecer só para te esquecer
G                           C
Quanta indiferença você me faz
                              G  G4  G
Tropecei nas pedras do meu caminho
                            D  D9  D
Fui amar a quem não devia amar
            C              G  G4  G
E mais uma vez, acabei sozinho

[Solo]: G  D  C  G  D 

E|---7--8--7--8-7--------7----7-----------------------|
B|---------------10-8-10---10---10-8-7-8-10-8-10--8-7-|
G|----------------------------------------------------|
D|----------------------------------------------------|
A|----------------------------------------------------|
E|----------------------------------------------------|

E|----------------------------------------------------|
B|----------------------------------------------------|
G|-5-4--4-5-7-----------------------------------------|
D|-----------7-5-4------------------------------------|
A|----------------------------------------------------|
E|----------------------------------------------------|

[Refrão]

G                           C
Quanta indiferença você me faz
                           G
Coração de pedra me faz sofrer
                               D  D9  D 
Não tem dó de mim só me faz chorar
         C                    G  G4  G
Tento esquecer só para te esquecer
G                           C
Quanta indiferença você me faz
                              G  G4  G
Tropecei nas pedras do meu caminho
                            D  D9  D
Fui amar a quem não devia amar
            C              G  G4  G
E mais uma vez, acabei sozinho
Composición de Bruno / Felipe
Colaboración y revisión:
  • Victor Paciesny
  • Antonio Fernandes
1.336 vistas
    • ½ Tono
    • A
    • Bb
    • B
    • C
    • Db
    • D
    • Eb
    • E
    • F
    • F#
    • G
    • Ab
  • Agregar a la lista

    0 comentarios

    Ver todos los comentarios
    00:00 / 00:00
    Outros vídeos desta música
    Repetir Calidad Automático
    Outros vídeos desta música
    00:00 / 00:00
    Automático
    OK