Cifra Club

Por Um Gole a Mais

Bruno e Marrone

Tablatura: Principal
reproducciones 598
Tono: G
[Intro]  G  C/G  Bm/G  C/G  G  C/G  Bm/G  C/G

    G   G9
Paguei
      G                             D
Eu assumo, eu admito que foi ilusão errei
                                           C
Um descuido, um deslize do meu coração te magoei
                                   G
Fiz exatamente o que devia pra te ver chorar,
      D
E me ver chorar

     G  G9
Não sei
          G                                 D
Se te imploro de joelhos o perdão ou se te deixo ir
                                            C
Mas eu vou voltar  te procurar, tentar me redimir
                                         G
De um erro, uma loucura dessas que a gente faz
           B
Por um gole a mais

 B         E    A/E
Foi nessa hora
           E                              B
Que eu me vi ali sentado feito um bobo e sem reação
                                          A
E você na minha frente docemente me estendeu a mão

E com os olhos cheios d'água
                    E              B
Disse que foi covardia o que eu fazia
A        E     A/E
E foi embora
       E                         B/D#   A/C# B
Foi levando a minha paz, o meu sorriso e desapareceu
                                               A
Eu não sei mais o que faço dessa vida, já não sou mais eu

Se tiver um jeito me perdoa pelo amor de Deus

[Solo]  G  D/F#  C  G  F  D    G  D/F#  C  Cm

E|-------------------------------------|
B|---------5----5p3----3-----5/10------|
G|---4-5-7---7------5------------------|
D|-------------------------------------|
A|-------------------------------------|
E|-------------------------------------|

E|-------------------------------------|
B|-------------------------------------|
G|---5p4--5p4------5p4--5p4------------|
D|------------5-------------5----3-4---|
A|-------------------------------------|
E|-------------------------------------|

E|-------------------------------------|
B|---------5----5p3----3-----5/10------|
G|---4-5-7---7------5------------------|
D|-------------------------------------|
A|-------------------------------------|
E|-------------------------------------|

     G  G9
Não sei
          G                                 D
Se te imploro de joelhos o perdão ou se te deixo ir
                                            C
Mas eu vou voltar  te procurar, tentar me redimir
                                         G
De um erro, uma loucura dessas que a gente faz
           B
Por um gole a mais

 B         E    A/E
Foi nessa hora
           E                              B
Que eu me vi ali sentado feito um bobo e sem reação
                                          A
E você na minha frente docemente me estendeu a mão

E com os olhos cheios d'água
                    E              B
Disse que foi covardia o que eu fazia
A        E     A/E
E foi embora
       E                         B/D#   A/C# B
Foi levando a minha paz, o meu sorriso e desapareceu
                                               A
Eu não sei mais o que faço dessa vida, já não sou mais eu

Se tiver um jeito me perdoa pelo amor de Deus
Acordes para:

    0 comentarios

      mostrar más comentarios

      ¿Conseguiste tocar?

      13tocaron0aún no

      ¡Graba un vídeo tocando Por Um Gole a Mais y envianoslo!

      00:00 / 00:00
      outros vídeos desta música
      repetirqualidadeautomática
      Outro vídeos desta música
        00:00 / 00:00
        automática
        OK