Cifra Club

Just The Way You Are

Bruno Mars

Tablatura: Principal
reproducciones 43.352
Tono: F (con acordes en la forma de C) Capo en 5ª casa
Intro:

  C
E|------------------------------------------|
B|--1---------------------------------------|
G|--0---0-0---------0-0---------------------|
D|--2---------3-2-3-------------------------|
A|--3-3-----3-----------0-------------------|
E|------------------------------------------|

 Am7
E|------------------------------------------|
B|--1---------------------------------------|
G|--0---0-0---------0-0---------------------|
D|--2---------3-2-3-------------------------|
A|--3-3-----3-----------0-------------------|
E|------------------------------------------|

  F5(7M/9)
E|------------------------------------------|
B|--1---------------------------------------|
G|--0---0-0---------0-0---------------------|
D|--3---------3-2-3-------------------------|
A|--3---------------------------------------|
E|--1-1-----1-----------1-------------------|

  C
E|------------------------------------------|
B|--1---------------------------------------|
G|--0---0-0---------0-0---------------------|
D|--2---------3-2-3-------------------------|
A|--3-3-----3-----------0-------------------|
E|------------------------------------------|

Primeira parte:

Oh her eyes, her eyes
Make the stars look like they're not shining
Am7
  Her hair, her hair
Falls perfectly without her trying
F5(7M/9)
  She's so beautiful
                   C
And I tell her every day

Yeah I know, I know
When I compliment her she won't believe me
Am7
  And it's so, it's so
Sad to think that she don't see what I see
F5(7M/9)                                                 C
  But every time she asks me "Do I look okay?" I say..

Refrão:

When I see your face
                Am7
There's not a thing that I would change
               F5(7M/9)
Cause you're amazing
                 C
Just the way you are

And when you smile,
                  Am7
The whole world stops and stares for a while
                    F5(7M/9)
Cause girl you're amazing
                 C
Just the way you are

Segunda parte:

Her lips, her lips
I could kiss them all day if she'd let me
Am7
  Her laugh, her laugh
She hates but I think it's so sexy
F5(7M/9)
  She's so beautiful
                   C
And I tell her every day

Oh you know, you know, you know
I'd never ask you to change
    Am7
If perfect is what you're searching for
Then just stay the same
 F5(7M/9)
So don't even bother asking if you look okay
            C
You know I say

Refrão:

When I see your face
                Am7
There's not a thing that I would change
               F5(7M/9)
Cause you're amazing
                 C
Just the way you are

And when you smile,
                  Am7
The whole world stops and stares for a while
                    F5(7M/9)
Cause girl you're amazing
                 C
Just the way you are

The way you are
            Am7
The way you are
              F5(7M/9)
Girl you're amazing
                 C
Just the way you are

When I see your face
                Am7
There's not a thing that I would change
               F5(7M/9)
Cause you're amazing
                 C
Just the way you are

And when you smile,
                  Am7
The whole world stops and stares for a while
                    F5(7M/9)
Cause girl you're amazing
                 C
Just the way you are
Acordes para:

    0 comentarios

      mostrar más comentarios

      ¿Conseguiste tocar?

      183tocaron5aún no

      ¡Graba un vídeo tocando Just The Way You Are y envianoslo!

      00:00 / 00:00
      outros vídeos desta música
      repetirqualidadeautomática
      Outro vídeos desta música
        00:00 / 00:00
        automática
        Capítulos
        • Início
        • Dicas iniciais
        • Tocando a música
        • Acordes da introdução
        • Tocando introdução
        • Ensinando dedilhado da intro (Parte 1)
        • Ensinando dedilhado da intro (Parte 2)
        • Ensinando dedilhado da intro (Parte 3)
        • Tocando introdução (tablatura)
        • Acordes da primeira parte
        • Tocando a primeira parte
        • Ensinando ritmo primeira parte
        • Tocando o refrão
        • Ensinando ritmo do refrão
        • Dicas para o último refrão
        • Tocando último refrão
        • Encerramento
        OK