Cifra Club

Have You Ever Really Loved a Woman

Bryan Adams

Tablatura: Principal
reproducciones 3.052
Tono: A#
(intro)

E|-------------|--------------|------------|
B|-------------|--------------|-----------3|
G|-0---2-3-2-2-|---0-2-3-2--2-|--5h3----2--|
D|-----------1-|------------1-|--5----0----|
A|-----------1-|------------3-|------------|
E|-------------|--------------|------------|

To really love a
Eb             Cm                       D
woman, to understand her, you've got to know her deep inside
              Bb               F                   C
Hear every thought, see every dream, and give her wings when she wants to fly
               Cm                                   D
Then when you find yourself lying helpless in her arms, you know you really
 C      G
love a woman

(refrão)
G                                                     D
When you love a woman, you tell her that she's really wanted.
 D                                                  G
When you love a woman, you tell her that she's the one
G                   Em7                         Am7 D Am7 D
She needs somebody, to tell her that it's gonna last forever
{2nd}(She needs somebody, to tell her that you'll always be together)
   Am7                  D         Am7                 D       G
So tell me have you ever really...really, really ever loved a woman

To really love a woman, let her hold you,
till you know how she needs to be touched
You've got to breathe her, really taste her
till you can feel her in your blood
And when you can see your unborn children in her eyes
you know you really love a woman

You've got to
Eb                                            G
give her some faith, hold her tight, a little tenderness
G
you've got to treat her right
D                                             G
She will be there for you taking good care of you

You really gotta love your woman

(solo)

E|-----6-4-3-----6-5------5-3-2-5p2----------2-3-2---2-------|
B|-3h4-------3h4-----4--4-----------4-3--3h4-------4---4-3-3-|
G|-----------------------------------------------------------|
D|-----------------------------------------------------------|
A|-----------------------------------------------------------|
E|-----------------------------------------------------------|

E|---------------13/---------5-5-6-5-------------------------------|
B|------------11---------6-8---------8-6---6-6-------8---6---8---6-|
G|-------------------5/7---------------------------8---8---8---8---|
D|----8-10/12------------------------------------7-----------------|
A|-12------------------------------------8-----8-------------------|
E|-----------------------------------------------------------------|

E|------6-8-----6/5--------------|
B|-8-10-----10/-----8-8/10/8-----|
G|---------------------------10/-|
D|-------------------------------|
A|-------------------------------|
E|-------------------------------|
             Cm                                  D
And when you find yourself lying helpless in her arms,
                    C      G
you know you really love a woman

(refrão 3X)

(final)
E|------------------------|------------------------------------------------||
B|------0-1/3/7-5-3-3\1-0-|0---------------1-0-----------------------------||
G|------------------------|----2---0---0-------2-2-----2-420---------------||
D|------0-2/4/7-5-4-4\2-0-|0-------------4----0----------------------------||
A|------------------------|----3---2---2-0---------------------------------||
E|3-----------------------|--------------------------3---------------------||
Acordes para:

    0 comentarios

      mostrar más comentarios

      ¿Conseguiste tocar?

      11tocaron2aún no

      ¡Graba un vídeo tocando Have You Ever Really Loved a Woman y envianoslo!

      00:00 / 00:00
      outros vídeos desta música
      repetirqualidadeautomática
      Outro vídeos desta música
        00:00 / 00:00
        automática
        OK