Cifra Club

I Will Be Right Here Waiting

Bryan Adams

Cifrado: Principal (guitarra y guitarra eléctrica)
tono: C
[Intro]

E|--------------------------------|
B|-8--8--6--5--3--3--3---5--6/5---|
G|--------------------------------|
D|--------------------------------|
A|--------------------------------|
E|--------------------------------|

E|--------------------------------|
B|--------------------------------|
G|--7--7--9/10--9--7--9--7/5------|
D|--------------------------------|
A|--------------------------------|
E|--------------------------------|

[Primeira Parte]

C         F               Dm
  Oceans apart, day after day
        F    G
And I slowly go insane
C              F            Dm
  I hear your voice, on the line
        F     G
But it doesnt stop the pain
Am              F       G
  If I see you next to never
Am            F      G
  How can we say forever?

[Refrão]

C               G               Am
  Wherever you go, whatever you do
           F          G
I will be right here waiting for you
C             G                       Am
  Whatever it takes, and how my heart breaks
           F          G
I will be right here waiting for you

[Segunda Parte]

C              F               Dm
  I took for granted, all the times
             F        G
That I thought would last somehow
C              F                   Dm
  I hear the laughter, I taste the tears
       F         G
But I can't get near you now
Am             F       G
  Oh cant you see it, baby
Am              F       G
  Youve got me going crazy

[Refrão]

C               G               Am
  Wherever you go, whatever you do
           F          G
I will be right here waiting for you
C             G                       Am
  Whatever it takes, and how my heart breaks
           F          G
I will be right here waiting for you

[Terceira Parte]

C                      Am                 F
  I wonder how we can survive, this romance
C                            Am                   G
  But in the end if I'm with you, I'll take the chance

[Solo]

E|--------------------------------|
B|-8--8--6--5--3--3--3---5--6/5---|
G|--------------------------------|
D|--------------------------------|
A|--------------------------------|
E|--------------------------------|

E|--------------------------------|
B|--------------------------------|
G|--7--9/10--9-7-7--9--7-5--------|
D|--------------------------------|
A|--------------------------------|
E|--------------------------------|

C             F       G
  Oh cant you see it, baby
C              F       G
  Youve got me going crazy

[Refrão]

C               G               Am
  Wherever you go, whatever you do
           F          G
I will be right here waiting for you
C             G                       Am
  Whatever it takes, and how my heart breaks
           F          G
I will be right here waiting for you
00:00 / 00:00
Otros videos de esta canción
Repetir
Otros videos de esta canción
Compositor no encontrado.
Colaboración y revisión:
5.152 vistas
    • ½ Tono
    • A
    • Bb
    • B
    • C
    • Db
    • D
    • Eb
    • E
    • F
    • F#
    • G
    • Ab
  • Agregar a la lista

    0 comentarios

    Ver todos los comentarios

    ¿Lograste tocar?

    5 Tocaron 0 Aún no

    ¡Graba un video tocando I Will Be Right Here Waiting y envíanoslo!

    00:00 / 00:00
    OK