Cifra Club

Lo Hago Por Tí

Bryan Adams

Cifrado: Principal (guitarra y guitarra eléctrica)
tono: C
Intro:

*       *       *       *       | *       *       *       *        |
B|---------------2-------2-3-3-2-| 0---------------0-------0-5-5-0- |
B|----3-------3-------3-----------| ----2-------2-------2---2-5-5--- |
G|--------2-------2-----------0---| --------2-------2--------------- |
0-----------------------0-------| 2------------------------------- |

*       *       *       *       | *       *       *       *        |
G|---------------3---------0-2---| 0---------------0-------0---0--- |
B|----0-------0-------0---3---3-3-| ----2-------2-------2-------2--- |
0-------0-------0-------2-----2-| --------2-------2-------2------- |
E|--------------------------------| -------------------------------- |

*       *       *       *       | *       *       *       *        |
B|---------------2-------2-3-3-2-| 0---------------0-------0-5-5-0- |
B|----3-------3-------3-----------| ----2-------2-------2---2-5-5--- |
G|--------2-------2-----------0---| --------2-------2--------------- |
0-----------------------0-------| 2------------------------------- |

G|---------------3-------3-------| 2----0------2---0-----------0--- |
B|----0-------0-----------0-------| 3-----3-----3---2--------------- |
0-------0-------0-------0-------| ------------2------------------- |
E|------------------------0-------| 0-----------0---2--------------- |

 D                   A                    G
 Mira en mis ojos, y' veras, que siento porti.
   D                A         G         D       A
 Explorar, en tu ser, me hallaras no buscaras mas.
       G                       D                 A
 Dime que, sientes mi calor,Y que correspondes mi amor.
         D             A                  D
 Sabes que si, todo lo que hago, lo hago por ti.

      D                   A                    G
 Mira mis ojos, y' sabras, que nada te ocultan.
     D                A         G         D       A
 Son como tu ves, tomame, quisiera poder, poderte lograr.
     G                       D                 A
 Dime que, sientes mi calor.  Nada quiero, mas que tu amor.
       D             A                  D
 Sabes que si, todo lo que hago, lo hago por ti.


      A        D          A          G
 No hay amor, como tu, y' otro que, te ame asi.
         D         A      *(4546)         A
 No hay lugar, si tu no estas, donde quisiera.
              G
 Estar, yeah!

    F          C (B  al corazon) F          C

               G
 Oh, dime que tu, sientes mi calor.
         Dm                  G
 Nada quiero, mas que to amor.
           F        C              G                  F
 Yeah, Luchar por ti, suffrir por ti, cada dia si,
         *(3336)
 oh, morir por ti.

                 C/G             G
 Sabes que si, todo lo que hago, oh...
         C
 lo hago por ti.

Solo:

E|----------|-------------------------------------------------------9------|
B|----------|-----------------------------------------9-9------9/11--11-11-|
G|-8-10-----|-8/10~--/10-8/6-3/6---6/8------6-6--8/10-----6-6--------------|
D|------8-8-|---------------------------6/8--------------------------------|
A|----------|--------------------------------------------------------------|
E|----------|--------------------------------------------------------------|

E|-------------------------|
 11/9/11------------------|
 --------8h10--8b-8b-8b-6-|
E|-------------------------|
E|-------------------------|
E|-------------------------|
00:00 / 00:00
Otros videos de esta canción
Repetir
Otros videos de esta canción
Compositor no encontrado.
163 exhibiciones
    • ½ Tono
    • A
    • Bb
    • B
    • C
    • Db
    • D
    • Eb
    • E
    • F
    • F#
    • G
    • Ab
  • Agregar a la lista
    00:00 / 00:00
    OK