Cifra Club

Nothing I've Ever Known

Bryan Adams

Cifrado: Principal (guitarra y guitarra eléctrica)
tono: A
E|-----------------2--4--|--5--------------5----|--4--------------4----|--2--------------0-----|
B|-----------------------|------------2---------|------------2---------|------------2------3---|
G|-----------------------|-------2--------------|-------2--------------|-------2---------------|
D|-----------------------|----------------------|--2-------------------|--0--------------------|
A|-----------------------|----------------------|----------------------|-----------------------|
E|-----------------------|--2-------------------|----------------------|-----------------------|
     A                          Bm                     Bm/A                  E
E|--0-----------------------|----------------------|---------------------|----------------------|
B|--------------------0--2--|--3--------------3----|--3------------------|--2--0----------------|
G|------------2----2--------|------------4---------|------------4--------|-----------------1----|
D|-------2------------------|-------4--------------|-------4-------------|-------------2--------|
A|--0-----------------------|--2-------------------|--0------------------|---------2------------|
E|--------------------------|----------------------|---------------------|--0--0----------------|
     E                                       A                      Bm
E|-------------------|-------------------|----------------------|----------------------|
B|-------------------|-------------------|--2--------------2----|--3--------------3----|
G|--1----------------|-------------------|------------2---------|------------4---------|
D|-------------------|-------------------|-------2--------------|-------4--------------|
A|-------------------|-------------------|--0-------------------|--2-------------------|
E|--0----------------|-------------------|----------------------|----------------------|
     A                      A                        Bm                     Bm/A
E|--0-------------------|--0---------------------|----------------------|---------------------|
B|-----------------2----|------------------0--2--|--3--------------3----|--3------------------|
G|------------2---------|---------------2--------|------------4---------|------------4--------|
D|-------2--------------|------------------------|-------4--------------|-------4-------------|
A|--0-------------------|--0---------------------|--2-------------------|--0------------------|
E|----------------------|------------------------|----------------------|---------------------|
     E                      E                   D                      E
E|----------------------|-------------------|--2--------------2----|----------------------0-----|
B|--0-------------------|-------------------|----------------------|--0----------------0-----3--|
G|-----------------1----|--1----------------|------------2---------|----------------------------|
D|------------2---------|-------------------|-------0--------------|------------2---------------|
A|-------2--------------|-------------------|--0-------------------|-------2--------------------|
E|--0-------------------|--0----------------|----------------------|--0-------------------------|
     C#m                    A                          Bm                        Bm
E|----------------------|--------------------------|-------------------------|---------------------|
B|--5--------------5----|--2-----------------0--2--|--3--------------3p0-----|--3--------------5p3-|
G|------------6---------|------------2----2--------|------------4------------|------------4--------|
D|-------6--------------|-------2------------------|-------4-----------------|-------4-------------|
A|--4-------------------|--0-----------------------|--2----------------------|--2------------------|
E|----------------------|--------------------------|-------------------------|---------------------|
     A                                                                 E
E|--0-------------------|-------------------|----------------------|------------------0-----|
B|-----------------2----|--L----------------|-----------------0----|--0------------0-----3--|
G|------------2---------|-------------------|--2---------2---------|------------------------|
D|-------2--------------|-------------------|-------0--------------|------------------------|
A|--0-------------------|-------------------|--0-------------------|------------------------|
E|----------------------|-------------------|----------------------|--0---------------------|
     C#m                    A                        E                      E
E|----------------------|------------------------|----------------------|------------------------|
B|--5--------------5----|------------------0--2--|--0-------------------|---------------------0--|
G|------------6---------|--2------------2--------|-----------------1----|--1------------1--2-----|
D|-------6--------------|------------------------|------------2---------|------------------------|
A|--4-------------------|--0---------------------|-------2--------------|------------------------|
E|----------------------|------------------------|--0-------------------|--0---------------------|
                                                    C#m
E|-------------------|--------------------------|--------------------------|
B|-------------------|--------------------5--4--|--5-----------------5--4--|
G|--2----------------|--------------------------|------------6-------------|
D|-------------------|-----------------6--------|-------6---------6--------|
A|-------------------|--------------------------|--4-----------------------|
E|--0----------------|--------------------------|--------------------------|
                                                      E
E|--------------------------|----------------------|------------------------|
B|--5-----------------5--4--|--5---------5---------|--9---------------9-----|
G|------------6-------------|-----------------4----|---------------------9--|
D|-------6---------6--------|-------6--------------|---------------9--------|
A|--4-----------------------|--4-------------------|--7---------------------|
E|--------------------------|----------------------|------------------------|
                                                        C#m      F#m         B
   B
E|--------------------------|--------------------------|-----------2--------|--2---------------2---|
B|--9-----------------9-----|--9-----------------9-----|--5-----------------|---------------------4|
G|------------9----------9--|------------9----------9--|--------------------|---------------4------|
D|-------9---------9--------|-------9---------9--------|-----------4--------|----------------------|
A|--7-----------------------|--7-----------------------|--4-----------------|--2-------------------|
E|--------------------------|--------------------------|--------------------|----------------------|
     E        G#          C#m                      F#m
E|--7-----------------|------------------------|--2--------2---------|-----------0-------------|
B|-----------4--------|--5------------------5--|----------------2----|--0----------------5--4--|
G|--------------------|------------------6-----|---------------------|-------------------------|
D|--------------------|---------------6--------|---------------------|----------------6--------|
A|--7--------6--------|--4---------------------|--4------------------|-------------------------|
E|--------------------|------------------------|---------------------|--0----------------------|
     C#m                        C#m                        A
E|--------------------------|--------------------------|---------------------|
B|--5-----------------5--4--|--5-----------------5--4--|--2------------------|
G|------------6-------------|------------6-------------|-------2-------------|
D|-------6---------6--------|-------6---------6--------|----------------2----|
A|--4-----------------------|--4-----------------------|--0------------------|
E|--------------------------|--------------------------|---------------------|
                               E                        E
E|-------------------------|------------------------|---------------------|------------------------|
B|--2----------------------|--9---------------9-----|--9------------9--7--|------------------9-----|
G|-------2--------------2--|---------------------9--|---------------------|---------------------9--|
D|----------------2--4-----|---------------9--------|---------------------|--9------------9--------|
A|--0----------------------|--7---------------------|--7------------------|--7---------------------|
E|-------------------------|------------------------|---------------------|------------------------|
                              A                        A        D           E
E|------------------------|------------------0-----|--0--------2--------|-------------------|
B|--9---------------9-----|--2------------------2--|--------------------|-------------------|
G|---------------------9--|---------------2--------|--------------------|-------------------|
D|---------------9--------|------------------------|-----------0--------|--9----------------|
A|--7---------------------|--0---------------------|--0-----------------|--7----------------|
E|------------------------|------------------------|--------------------|-------------------|
                              A                     A        A           E
E|------------------------|---------------0-----|-----------0--------|-------------------|
B|------------------9-----|---------------------|--2-----------------|--0----------------|
G|---------------------9--|--2---------------2--|--------------------|-------------------|
D|--L------------9--------|---------------------|--------------------|-------------------|
A|--L---------------------|--0------------------|--0--------0--------|-------------------|
E|------------------------|---------------------|--------------------|--0----------------|
                                                 F#m                    C#m
E|-------------------|-----------------2--4--|--5--------------5----|--4--------------4----|
B|--L----------------|-----------------------|------------2---------|------------5---------|
G|-------------------|-----------------------|-------2--------------|-------6--------------|
D|-------------------|-----------------------|----------------------|----------------------|
A|-------------------|-----------------------|----------------------|--4-------------------|
E|--L----------------|-----------------------|--2-------------------|----------------------|
     G#                     C#m                    D                      C#m
E|--4-------------------|----------------------|--2--------------2----|----------------------|
B|-----------------4----|--5--------------5----|------------3---------|-----------------5----|
G|------------5---------|------------6---------|-------2--------------|--6---------6---------|
D|-------6--------------|-------6--------------|--0-------------------|-------6--------------|
A|--6-------------------|--4-------------------|----------------------|--4-------------------|
E|----------------------|----------------------|----------------------|----------------------|
     C#m                 G#                  C#m
E|-------------------|-------------------|-------------------||
B|--5----------------|-------------------|-------------------||
G|-------------------|--5----------------|--6----------------||
D|-------------------|-------------------|-------------------||
A|--4----------------|-------------------|--4----------------||
E|-------------------|--4----------------|-------------------||

00:00 / 00:00
Otros videos de esta canción
Repetir
Otros videos de esta canción
Composición de Bryan Adams / Eliot Kennedy / Hans Zimmer
Colaboración y revisión:
  • Bernardo Vasconcelos
  • Guilherme Werneck
7.853 vistas
    • ½ Tono
    • A
    • Bb
    • B
    • C
    • Db
    • D
    • Eb
    • E
    • F
    • F#
    • G
    • Ab
  • Agregar a la lista

    0 comentarios

    Ver todos los comentarios

    ¿Lograste tocar?

    2 Tocaron 5 Aún no

    ¡Graba un video tocando Nothing I've Ever Known y envíanoslo!

    00:00 / 00:00
    OK