Cifra Club

When Your Gone

Bryan Adams

Cifrado: Principal (guitarra y guitarra eléctrica)
tono: F
INTRO: Dm F C G 
 
            Dm                  G 
I've been wandering around the house all night 
C                             Csus4 
wondering what the hell to do 
              Dm              G                       C    Csus4 
I'm trying to concentrate but all I can think of is you 
          Dm              G  
well the phone don't ring cos my friends ain't home 
C                           Csus4 
I'm tired of being all alone 
        Dm            Bb              G 
got the TV on cos the radio's playing songs that remind me of you 
 
Chorus 
                 Dm          F            C      G 
Baby when you're gone - I realise I'm in love 
             Dm                 F           C         G 
the days go on and on - and the nights just seem so long 
                           Dm        F                      C      G 
even food don't taste that good - drink ain't doing what it should 
                     Dm      Bb               G 
things just feel so wrong - baby when you're gone 
 
VERSE IS THE SAME AS ABOVE 
I've been driving up and down these streets 
trying to find somewhere to go 
yeah I'm lookin' for a familiar face but there's no one I know 
this is torture - this is pain - it feels like I'm gonna go insane 
I hope you're coming back real soon - cos I don't know what to do 
 
Chorus 
 
SOLO: Dm G C Csus4 
 
Chorus x2 
 
 
E|--8-3---0-----0-3-5-3-0-0-0-0-----------------------0-3-0- 
B|------3---3-1-----------------3-1-1---1-3-1-3-3-3-1------- 
G|------------------------------------2--------------------- 
D|---------------------------------------------------------- 
A|---------------------------------------------------------- 
E|---------------------------------------------------------- 

     --------------------------0-3-5-5-5-3-3-5-5-3-3-5-3-----0-3-|
     3-1-3-1---------------1-3---------------------------3-1-----|
     --------2-0-----0-0-2---------------------------------------|
     ------------0-2---------------------------------------------|
     ------------------------------------------------------------|
     ------------------------------------------------------------|
 
 
E|--3-0-3-5-3-5-8-12-10-8----8-10-10-8-10-10-10---------------------------------
B|------------------------10--------------------11-11-11-11-11-10-8-8-10-8-3-1--
G|------------------------------------------------------------------------------
D|------------------------------------------------------------------------------
A|------------------------------------------------------------------------------
E|------------------------------------------------------------------------------
00:00 / 00:00
Otros videos de esta canción
Repetir
Otros videos de esta canción
Compositor no encontrado.
999 vistas
    • ½ Tono
    • A
    • Bb
    • B
    • C
    • Db
    • D
    • Eb
    • E
    • F
    • F#
    • G
    • Ab
  • Agregar a la lista

    0 comentarios

    Ver todos los comentarios

    ¿Lograste tocar?

    4 Tocaron 0 Aún no

    ¡Graba un video tocando When Your Gone y envíanoslo!

    00:00 / 00:00
    OK