Cifra Club

Kagerou

Buck-Tick

Cifrado: Principal (guitarra y guitarra eléctrica)
tono: C
Intro
B|--10----|--13----|--12----|--15----|
G|--12b14-|--15b17-|--14b16-|--17b19-|

Chorus
B|--10----|--13----|--10----|--13----|
G|--12b14-|--15b17-|--12b14-|--15b17-|

B|--10----|--13----|--12----|--15----|
G|--12b14-|--15b17-|--14b16-|--17b19-|

D|--7-6-5-2-|
A|--7-6-5-2-|
E|--5-4-3-0-|

Verse
D A

Bridge
G C A D (B)E

Chorus
Verse
Bridge
Chorus

Break (some playing with Dm and A chords)
something like:
e|---5--5--7--5--5---5--5--7--5--5-|
B|--6--6--6--6--6-6----------------|
G|-7--7--7--7--7----5--5--5--5--5--|
D|-----------------7--7--7--7--7---|

Bridge
Chorus (until end)
00:00 / 00:00
Otros videos de esta canción
Repetir
Otros videos de esta canción
Compositor no encontrado.
Colaboración y revisión:
  • BEAN Van
577 vistas
    • ½ Tono
    • A
    • Bb
    • B
    • C
    • Db
    • D
    • Eb
    • E
    • F
    • F#
    • G
    • Ab
  • Agregar a la lista

    0 comentarios

    Ver todos los comentarios

    ¿Lograste tocar?

    0 Tocaron 0 Aún no

    ¡Graba un video tocando Kagerou y envíanoslo!

    00:00 / 00:00
    OK