Cifra Club

Y desde entonces

Buddy Richard

Cifrado: Principal (guitarra y guitarra eléctrica)
Selo Cifra Club: esta cifra foi revisada para atender aos critérios oficiais da nossa Equipe de Qualidade.
tono: D

INTRO:
E|-------------------------------------------------|
B|-------------------------------------------------|
G|--------------4----7-6-4--2-4----------------|
D|--4---7--4-------------------------------------|
A|------------------------------------------------|
E|------------------------------------------------|

E|-------------------------------------------------|
B|-------------------------------------------------|
G  4-2-4-7-7-6--4-2-0-2--------------------
D|-------------------------------------------------|
A|-------------------------------------------------|
E|-------------------------------------------------|

D
Yo necesito tus manos blancas
Em 
Tus ojos grises, tu mirada
  A                 G
Y aquella habitación
           D
de aquel hotel

D
Fueron entonces, tus besos míos
  Em 
Y tus preguntas tus suspiros
  A            G
Y aquel amanecer
          D
Yo te perdí

CORO:  [x2veces]
D         Bm
Y desde entonces
G                    A                      G
Me busco sin parar, y siento cada día que mi cuerpo
          D
Te desea más

           Bm   G
Presiento que....Jamás en otros brazos
    A       D
Tú serás feliz

PUNTEO:
E|-------------------------------------------------|
B|-------------------------------------------------|
G  -----------4----7-6-4--2-4----------------------
D  --4---7--4-------------------------------------
A  ------------------------------------------------
E  ------------------------------------------------

E|-------------------------------------------------|
B|-------------------------------------------------|
G  4-2-4-7-7-6--4-2-0-2--------------------
D|-------------------------------------------------|
A|-------------------------------------------------|
E|-------------------------------------------------|
D                                Em 
Yo necesito de tu presencia de tu ironía
                     A                G
De tu  inocencia De aquel primer encuentro
         D
En un café
D
Fueron entonces tus brazos míos
    Em 
Tus preguntas y tus suspiros
   A           G          D
Y aquel amanecer yo te perdí

D         Bm
Y desde entonces
G                    A                      G
Me busco sin parar, y siento cada día que mi cuerpo
          D
Te desea más

           Bm   G
Presiento que....Jamás en otros brazos
    A      D
Tú serás feliz

(Guitarra eléctrica)
E|------5---7---10-9-7-5-7---7-5-7-7/10-10-9---|
B|----7---7------------------------------------|
G|---------------------------------------------|
D|---------------------------------------------|

E|---7----------------------------------|
B|------10-8-10--------------------------|
G|---------------------------------------|
D|---------------------------------------|

D         Bm
Y desde entonces
G                    A                      G
Me busco sin parar, y siento cada día que mi cuerpo
          D
Te desea más

D          Bm   G
Presiento que....Jamás en otros brazos
    A      D
Tú serás feliz
Otros videos de esta canción
    186 exhibiciones
      • ½ Tono
      • A
      • Bb
      • B
      • C
      • Db
      • D
      • Eb
      • E
      • F
      • F#
      • G
      • Ab
    • Agregar a la lista

    Afinação da cifra

    Afinador online

      Ops (: Contenido disponible solo en portugués.
      OK