Cifra Club

Antenas Rubias

Buenos Muchachos

Chords: Principal (acoustic and electric guitars)
tone: C
Intro:

E|--------------|---------------| |
B|----0-1-1-1-0-|-----0-3-3-3-0-| |
G|---0----------|----0----------| | (x2)
D|--2-----------|---2-----------| |
A|-3------------|-3-------------| |
E|--------------|---------------| |

Verso:

Riff1:
E|-------------|-----3-1-0--|--------------| |
B|----1-3-1-0--|----0-----3-|----0-1-3-1-0-| |
G|---0-------0-|---0--------|---2----------| |
D|--2----------|--0---------|--2-----------| |
A|-3-----------|------------|-0------------| |
E|-------------|-3----------|--------------| |

Riff2:
E|-------------|-----3-1-0--|--------------|---------------| |
B|----1-3-1-0--|----0-----3-|----0-1-3-1-0-|-----0-1-1-1-0-| |
G|---0-------0-|---0--------|---2----------|----2----------| |
D|--2----------|--0---------|--2-----------|---2-----------| |
A|-3-----------|------------|-0------------|-0-------------| |
E|-------------|-3----------|--------------|---------------| |

Riff4: (2da Guitarra)
E|--5p0-3p0--|--5p0-3p0--|--5p0-3p0--| |
B|---------1-|---------1-|---------6-| |
G|-5---------|-5---------|-5---------| |
D|-----------|-----------|-----------| |
A|-----------|-----------|-----------| |
E|-----------|-----------|-----------| |



[Riff 1]
En la moto con rulos

[Riff 1]
Va pitando vapor

[Riff 1]
Sus tatuajes no hablan

[Riff 2]
Dicen lo que no habló

[Riff 1]
Cada día es su día

[Riff 1]
Cada día no es ayer

[Riff 1]
Cuando cuenta esa vida

[Riff 2] (x2)
Es que entiende que es hoy

C - G - Am (x4)


[Riff 4]
Usa casco sin pera

[Riff 4]
Y los brazos al sol

[Riff 4]
Se avivó que las antenas

[Riff 4]
Nada saben de amor

[C  G  Am]
No es ayer
[C  G  Am]
Hoy es hoy
[C  G  Am]
No es ayer
[C  G  F]
Hoy es hoy
00:00 / 00:00
Other videos of this song
Repeat
Other videos of this song
Composed by Buenos Muchachos
53 views
    • ½ Tone
    • A
    • Bb
    • B
    • C
    • Db
    • D
    • Eb
    • E
    • F
    • F#
    • G
    • Ab
  • Add to list
    00:00 / 00:00
    OK