Cifra Club

Cambio el cuarto

Buenos Muchachos

Cifrado: Principal (guitarra y guitarra eléctrica)
tono: D
E|-------------------------------------------------------|
B|-----3-----3-----2-----2-----2-----2-----2-----2-----2-|
G|---4-----4-----4-----4-----4-----3-----3-----3-----3---|
D|-4-----4-----4-----4-----4-----4-----4-----4-----4-----|
A|-------------------------------------------------------|
E|-------------------------------------------------------|

E|--------------------------------------------------------|
B|-----2-----2-----2-----2-----3-----3----3-----3--r| epite
G|---3-----3-----3-----3-----4-----4----4-----4-----------|
D|-2-----2-----4-----4-----4-----4----4-----4-------------|
A|--------------------------------------------------------|
E|--------------------------------------------------------|

>>Guitarra Topo

E|--------------------------------------------------------|
B|-12---11--8--7--3---------------------------------------|
G|-11---9---7--6--4---------------------------------------|
D|-12---11--9--8--4---------------------------------------|
A|--------------------------------------------------------|
E|--------------------------------------------------------|


D                     Bm 
Ice, ice, cold brain.
Sombrío.

D                     Bm 
Ice, ice, broken eyes.
Tan cerca.

.........................

E|--7---7-7-7-6-------------------------------------------|
B|--------------7-----------------------------------------|
G|----------------6----8-7---7-8-7---5-7------------------|
D|--------------------------------------------------------|
A|--------------------------------------------------------|
E|--------------------------------------------------------|

E|--------------------------------------------------------|
B|--------------------------------------------------------|
G|--------------------------------------------------------|
D|--------------------------------------------------------|
A|--5---5-7-5-4---------------5-4-2-2---------------------|
E|--------------7-6----3-2--2-----------------------------|

......................

G               A
...El sol hoy vuelve a incendiar...

D                Bm
...partiendo el cielo en cristal...

G                A
...Crestas de estrellas como ves...
00:00 / 00:00
Otros videos de esta canción
Repetir
Otros videos de esta canción
Composición de Buenos Muchachos
19 exhibiciones
    • ½ Tono
    • A
    • Bb
    • B
    • C
    • Db
    • D
    • Eb
    • E
    • F
    • F#
    • G
    • Ab
  • Agregar a la lista
    00:00 / 00:00
    OK