Cifra Club

En la nada

Buenos Muchachos

Chords: Principal (acoustic and electric guitars)
tone: E

E|----------------------7----7--------------------------|
B|--9----9----7----7--------------10-10-10-9-9-9-7-7-7-5-|
G|-------------------------------------------------------|
D|-------------------------------------------------------|
A|-------------------------------------------------------|
E|-------------------------------------------------------|


C#m     B

Bm
Ay,
       A
yo no digo,
       E
digo nada.
Bm
Ver
        A
siendo ciego
  C#m    B
al ver caer
     Bm          A
las penas de tu otoño
       E
y sus ramas.

Bm        A
Ver el vacío
  C#m     B
y ver detrás.
Bm              A
Ver que hay de todo
       E
en la nada.

E|--12--11-9---------------------------------------------|
B|-----------12-10-9-10-12-------------------------------|
G|-------------------------------------------------------|
D|-------------------------------------------------------|
A|-------------------------------------------------------|
E|-------------------------------------------------------|
00:00 / 00:00
Other videos of this song
Repeat
Other videos of this song
Composer not found.
21 views
    • ½ Tone
    • A
    • Bb
    • B
    • C
    • Db
    • D
    • Eb
    • E
    • F
    • F#
    • G
    • Ab
  • Add to list
    00:00 / 00:00
    OK