Cifra Club

La hermosa langosta aplastada en la vereda

Buenos Muchachos

Cifrado: Principal (guitarra y guitarra eléctrica)
Selo Cifra Club: esta cifra foi revisada para atender aos critérios oficiais da nossa Equipe de Qualidade.
tono: Bm
E|--0--|
B|--7--|
G|--0--|
D|--5--|
A|--7--|
E|--x--|


...en la piedra laja hay gotas de rón...

E|--------------------|
B|--7h8p...-7h8p...---|
G|--------------------|
D|--------------------|
A|--------------------|
E|--------------------|

Estribillo sobre base en:

A  - G   - Bm  - Dm  - A 


Punteo sobre estribillo:

E|---------------------------------------------------------------|
B|------15--------12h14-12h14--12h14-12h14(15)-----12---12-14----|
G|-12--------14-------------------------------12--------------14-|
D|---------------------------------------------------------------|
A|---------------------------------------------------------------|
E|---------------------------------------------------------------|

Solo despues del estribillo:

E|-7---7-5---------------------------------|
B|---------8-7-5--------8---8-7-5----------|
G|---------------7-6--------------7-6-4----|
D|--------------------------------------5--|
A|-----------------------------------------|
E|--------------------------s| igue-abajo-->>

E|-----------------------------------------------|
B|-----------------------------------------------|
G|-7---7-6-4-------------------------------------|
D|-----------7-5-4-------------------------------|
A|-----------------5--5-7-5-4---4h5p-------------|
E|-----------------------------------7h5h3h2h0p--|



Punteo sobre "segundo" estribillo:

E|---------------------------------------------------------------|
B|------15--------12h14-12h14--12h14-12h14(15)-----12---12-14----|
G|-12--------14-------------------------------12--------------14-|
D|---------------------------------------------------------------|
A|---------------------------------------------------------------|
E|---------------------------------------------------------------|

E|-----------------------------------------------|
B|-12h14-12h14--12h14-12h14(15)---15...(sost| iene)
G|-----------------------------------------------|
D|-----------------------------------------------|
A|-----------------------------------------------|
E|--------------------------------s| igue-abajo-->>

E|---------------------------------|
b |15/2h3--3-2-0-2---0---------2----
G|----------------------4---4----2-|
D|---------------------------------|
A|---------------------------------|
E|---------------------------------|
Otros videos de esta canción
    104 exhibiciones
      • ½ Tono
      • Am
      • Bbm
      • Bm
      • Cm
      • C#m
      • Dm
      • Ebm
      • Em
      • Fm
      • F#m
      • Gm
      • G#m
    • Agregar a la lista

    Afinación de cifrado

    Afinador online

      OK