Cifra Club

La isla era un camalote

Buenos Muchachos

Chords: Principal (acoustic and electric guitars)
tone: Bb
E|--7---7---5--|
B|--0---6---6--|
G|--5---5---5--|
D|--7---7---7--|
A|--x---x---x--|
E|--x---x---x--|


     4   (=Am )

E|--0---0---0--|
B|--1---0---3--|
G|--2---2---2--|
D|--2---2---2--|
A|--0---0---0--|
E|--x---x---x--|

Se rasga desde la 4º hacia abajo haciendo
sonar más las 3 primeras cuerdas.
Escuchen la canción para ritmo y tiempos.

1
El pez nadando hoy busca la orilla,
2                 3
él busca terminar.
1
Pero no quiere ser solo un pescado,
2                   3
él quiere alimentar.
1
Nadando un plan que le arme el destino
2                        3
y el miedo un gran final.
1
Pero él habla y no ve lo que pesa.
2                                  3

E|E|E|E|---------------------------------------|-|-||

4
Hace frío y no terminé.

F 
Hace frío y no terminé.

E|E|E|E|---------------------------------------|-|-||

PUNTEO MARCELO:

e|--------12--------12---------13----------18---
b|---13--------13---------13---------13-------17
g|-14---14---14---14---14----14---14----14------
d|E|E|E|E|---------------------------------------|-|-||-----
a|E|E|E|E|---------------------------------------|-|-||-----
e|E|E|E|E|---------------------------------------|-|-||-----

E|E|---------------------------------------|-|

Dm 
Subo al bote a flotar...
F 
con miedo de calma.
Dm 
Isla camalote... se hundió,
F 
culpa de plomada.
Gm                  Bb 
Cementerio da... la paz.

E|---------------------------------------|
Dm       F 
Hoy, no ves
Cm       Gm  
lo que hacés,
Eb                    Bb            A 
nunca hay frío en la poesía de la muerte.
Dm      F 
Si te vas
Cm       F 
a tu altar
Eb                   Bb          A 
nunca aplastes corazones-camalotes.

PUNTEO sobre el final (está exacto) :

>parte "grave"
e|E|E|E|E|---------------------------------------|-|-||6-5----
b|------------------------------5--6-6-8-6--------
g|--------------------------8-7-------------------
d|------------------5h7(x4)-----------------------
a|-8h10(x4)-7h8(x4)-------------------------------
e|E|E|E|E|---------------------------------------|-|-||-------

>parte "aguda"
e|E|E|E|E|---------------------------------------|-|-||---
b|---10--------11--11--11--11--10--10---------
g|-12--(x8)----------------------------12--12-
d|-----------13--13--12--12--12--12--12---12--
a|E|E|E|E|---------------------------------------|-|-||---
e|------------------------------sigue abajo>>>

e|E|E|E|E|---------------------------------------|-|-||-------
b|10-11-10-11--11--11---11--11--10--10--10-10-(x8)
g|-----------12--12---10--10--10--10---9--9-------
d|E|E|E|E|---------------------------------------|-|-||-------
a|E|E|E|E|---------------------------------------|-|-||-------
e|E|E|E|E|---------------------------------------|-|-||-------
00:00 / 00:00
Other videos of this song
Repeat
Other videos of this song
Composed by Pedro Dalton
24 views
    • ½ Tone
    • A
    • Bb
    • B
    • C
    • Db
    • D
    • Eb
    • E
    • F
    • F#
    • G
    • Ab
  • Add to list
    00:00 / 00:00
    OK